Iron Maiden - Ides Of March

Iron Maiden - Ides Of March

Iron Maiden



Title: Ides Of March
Album: Killers
Artist: Iron Maiden
Author: Composed by Steve Harris

Track 1: Dave (Guitar)
E|---------------|-------------------|---------------|----------------------|---------------|
B|---------------|-------------------|---------------|----------------------|---------------|
G|-9-------11----|-12----------------|---------------|----------------------|-7-------9-----|
D|-9-------11----|-12------7----9----|-10------9-----|-7-------5---4--------|-7-------9-----|
A|-7-------9-----|-10------7----9----|-10------9-----|-7---------------7----|-5-------7-----|
E|---------------|---------5----7----|-8-------7-----|-5--------------------|---------------|

E|-------------------|---------------|---------------|---------------|-------------------|
B|-------------------|---------------|---------------|---------------|-------------------|
G|-11------12---11---|-9-------7-----|-9-------7-----|-9-------11----|-12----------------|
D|-11------12---11---|-9-------7-----|-9-------7-----|-9-------11----|-12------7----9----|
A|-9-------10---9----|-7-------5-----|-7-------5-----|-7-------9-----|-10------7----9----|
E|-------------------|---------------|---------------|---------------|---------5----7----|

E|---------------|----------------------|---------------|-------------------|---------------|
B|---------------|----------------------|---------------|-------------------|---------------|
G|---------------|----------------------|-7-------9-----|-11------12---11---|-9-------7-----|
D|-10------9-----|-7-------5---4--------|-7-------9-----|-11------12---11---|-9-------7-----|
A|-10------9-----|-7---------------7----|-5-------7-----|-9-------10---9----|-7-------5-----|
E|-8-------7-----|-5--------------------|---------------|-------------------|---------------|

E|---------------|--------------------------------------------------|--------------------------------------------------|
B|---------------|--------------------------------------------------|--------------------------------------------------|
G|-9-------7-----|--------------------------------------------------|--------------------------------------------------|
D|-9-------7-----|-9------------9------------9------------9----11---|-12-----------12-----------12---------------------|
A|-7-------5-----|-7----7---7---7----7---7---7----7---7---7----9----|-10---10--10--10---10--10--10---10--10--7----9----|
E|---------------|--------------------------------------------------|----------------------------------------5----7----|

E|--------------------------------------------------|-----------------------------------------------------|
B|--------------------------------------------------|-----------------------------------------------------|
G|--------------------------------------------------|-----------------------------------------------------|
D|--------------------------------------------------|----------------------------------------12--11--9----|
A|-10-----------10-----------10-----------10---9----|-7------------7------------7------------10--9---7----|
E|-8----8---8---8----8---8---8----8---8---8----7----|-5----5---5---5----5---5---5----5---5----------------|

E|--------------------------------------------------|--------------------------------------------------|
B|--------------------------------------------------|--------------------------------------------------|
G|--------------------------------------------------|--------------------------------------------------|
D|-7------------7------------7------------7----9----|-11-----------11-----------11-----------12---11---|
A|-5----5---5---5----5---5---5----5---5---5----7----|-9----9---9---9----9---9---9----9---9---10---9----|
E|--------------------------------------------------|--------------------------------------------------|

E|--------------------------------------------------|--------------------------------------------------|
B|--------------------------------------------------|--------------------------------------------------|
G|--------------------------------------------------|--------------------------------------------------|
D|-5------------5------------5------------5----7----|-5------------5------------5------------5----7----|
A|-7----7---7---7----7---7---7----7---7---7----5----|-7----7---7---7----7---7---7----7---7---7----5----|
E|--------------------------------------------------|--------------------------------------------------|

E|--------------------------------------------------|--------------------------------------------------|
B|--------------------------------------------------|--------------------------------------------------|
G|--------------------------------------------------|--------------------------------------------------|
D|-9------------9------------9------------9----11---|-12-----------12-----------12---------------------|
A|-7----7---7---7----7---7---7----7---7---7----9----|-10---10--10--10---10--10--10---10--10--7----9----|
E|--------------------------------------------------|----------------------------------------5----7----|

E|--------------------------------------------------|-----------------------------------------------------|
B|--------------------------------------------------|-----------------------------------------------------|
G|--------------------------------------------------|-----------------------------------------------------|
D|--------------------------------------------------|----------------------------------------12--11--9----|
A|-10-----------10-----------10-----------10---9----|-7------------7------------7------------10--9---7----|
E|-8----8---8---8----8---8---8----8---8---8----7----|-5----5---5---5----5---5---5----5---5----------------|

E|--------------------------------------------------|--------------------------------------------------|
B|--------------------------------------------------|--------------------------------------------------|
G|--------------------------------------------------|--------------------------------------------------|
D|-7------------7------------7------------7----9----|-11-----------11-----------11-----------12---11---|
A|-5----5---5---5----5---5---5----5---5---5----7----|-9----9---9---9----9---9---9----9---9---10---9----|
E|--------------------------------------------------|--------------------------------------------------|

E|--------------------------------------------------|--------------------------------------------------|
B|--------------------------------------------------|--------------------------------------------------|
G|--------------------------------------------------|--------------------------------------------------|
D|-5------------5------------5------------5----7----|-5------------5------------5------------5----7----|
A|-7----7---7---7----7---7---7----7---7---7----5----|-7----7---7---7----7---7---7----7---7---7----5----|
E|--------------------------------------------------|--------------------------------------------------|

E|---------------|-------------------|---------------|----------------------|---------------|
B|---------------|-------------------|---------------|----------------------|---------------|
G|-9-------11----|-12----------------|---------------|----------------------|-7-------9-----|
D|-9-------11----|-12------7----9----|-10------9-----|-7-------5---4--------|-7-------9-----|
A|-7-------9-----|-10------7----9----|-10------9-----|-7---------------7----|-5-------7-----|
E|---------------|---------5----7----|-8-------7-----|-5--------------------|---------------|

E|-------------------|---------------|---------|
B|-------------------|---------------|---------|
G|-11------12---11---|-9-------7-----|-9-------|
D|-11------12---11---|-9-------7-----|-9-------|
A|-9-------10---9----|-7-------5-----|-7-------|
E|-------------------|---------------|---------|
Iron Maiden - Ides Of March
Iron Maiden - Ides Of March.gp3