Iron Maiden - Infinite Dreams

Iron Maiden



Title: Infinite Dreams
Album: Seventh Son Of A Seventh Son
Artist: Iron Maiden
Author: Words by Steve Harris

Track 1: Dave (Lead & Rhythm Guitars)
E|-----------------------------|---------------|-----------------------------|------------------------------------|
B|-----------------------------|---------------|-----------------------------|-15----12---------------------------|
G|-%-----14----14----14---12---|-14----14------|-%-----14----14----14---12---|------------14--14--14---12----14---|
D|-%---------------------------|---------------|-%---------------------------|------------------------------------|
A|-----------------------------|---------------|-----------------------------|------------------------------------|
E|-----------------------------|---------------|-----------------------------|------------------------------------|

E|-----------------------------|---------------|-----------------------------|------------------------------------|
B|-----------------------------|---------------|-----------------------------|-15----12---------------------------|
G|-14----14----14----14---12---|-14----14------|-%-----14----14----14---12---|------------14--14--14---12----14---|
D|-----------------------------|---------------|-%---------------------------|------------------------------------|
A|-----------------------------|---------------|-----------------------------|------------------------------------|
E|-----------------------------|---------------|-----------------------------|------------------------------------|

E|----------------------------------------|-----------------------------------------------|
B|----------------------------------------|-----------------------------------------------|
G|----------------------------------------|-5---------%----7----7---7---X-----------------|
D|-------5----7----7----5----7---5--------|-5-----X---%----7----7---7---------------------|
A|-----------------------------------7----|-3--------------5----5------------7---5--------|
E|-0--------------------------------------|------------------------------------------7----|

E|---------------------------------|-----------------------------------------------|
B|---------------------------------|-----------------------------------------------|
G|---------------------------------|-----------5-----------------7------------9----|
D|---------------------------------|------5------------------7------------9--------|
A|-------5----7----7----5----7-----|-3--------------3----5------------7------------|
E|-0-------------------------------|-----------------------------------------------|

E|------------------------------------|--------------------------------|-------------------------------------|
B|-----------------12-----------------|--------------------------------|-------------------------------------|
G|-------14---12---12---9---12--9-----|-5------7----7------------------|-------14---12---12---9----9----7----|
D|-------14---12---12---9---12--9-----|-5------7----7------------------|-------14---12---12---9----9----7----|
A|------------------------------------|-3------5----5-----7---8--------|-------------------------------------|
E|-0----------------------------------|---------------------------7----|-0-----------------------------------|

E|------------------------------------------------------------------|----------------------------------------|
B|------------------------------------------------------------------|----------------------------------------|
G|---------5-----------5--------------------------------------------|----------------------------------------|
D|-----3-----------3-----------5---7-------5---7---5---7---5--------|-------5----7----7----5----7---5--------|
A|-3-----------3-----------5-----------5-----------------------7----|-----------------------------------7----|
E|------------------------------------------------------------------|-0--------------------------------------|

E|-----------------------------------------------|---------------------------------|
B|-----------------------------------------------|---------------------------------|
G|-5---------%----7----7---7---X-----------------|---------------------------------|
D|-5-----X---%----7----7---7---------------------|---------------------------------|
A|-3--------------5----5------------7---5--------|-------5----7----7----5----7-----|
E|------------------------------------------7----|-0-------------------------------|

E|-----------------------------------------------|------------------------------------|
B|-----------------------------------------------|------------------------------------|
G|-----------5-----------------7------------9----|-------14---12---12---9---12--9-----|
D|------5------------------7------------9--------|-------14---12--------9---12--9-----|
A|-3--------------3----5------------7------------|------------------------------------|
E|-----------------------------------------------|-0----------------------------------|

E|--------------------------------|-------------------------------------|----------------------------------------------|
B|--------------------------------|-------------------------------------|----------------------------------------------|
G|-5------7----7------------------|-------14---12---12---9----9----7----|-7---9----9---12---12--14--14--19---19--19----|
D|-5------7----7------------------|-------14---12---12---9----9----7----|-7---9----9---12---12--14--14--19---19--19----|
A|-3------5----5-----7---8--------|-------------------------------------|----------------------------------------------|
E|---------------------------7----|-0-----------------------------------|----------------------------------------------|

E|------------------------------------|--------------------------------|------------------------------------|
B|------------------------------------|--------------------------------|------------------------------------|
G|-9-----X----9----9-----9----9---9---|-5-----5-----7-----7----7---7---|-9-----X----9----9-----9----9---9---|
D|-9-----X----9----9-----9----9---9---|-5-----5-----7-----7----7---7---|-9-----X----9----9-----9----9---9---|
A|-7-----X----7----7-----7----7---7---|-3-----3-----5-----5----5---5---|-7-----X----7----7-----7----7---7---|
E|------------------------------------|--------------------------------|------------------------------------|

E|--------------------------------|------------------------------------|--------------------------------|
B|--------------------------------|------------------------------------|--------------------------------|
G|-5-----5-----7-----7----7---7---|-9-----X----9----9-----9----9---9---|-5-----5-----7-----7----7---7---|
D|-5-----5-----7-----7----7---7---|-9-----X----9----9-----9----9---9---|-5-----5-----7-----7----7---7---|
A|-3-----3-----5-----5----5---5---|-7-----X----7----7-----7----7---7---|-3-----3-----5-----5----5---5---|
E|--------------------------------|------------------------------------|--------------------------------|

E|------------------------------------|--------------------------------|------------------------------------|
B|------------------------------------|--------------------------------|------------------------------------|
G|-9-----X----9----9-----9----9---9---|-5-----5-----7-----7----7---7---|-9-----X----9----9-----9----9---9---|
D|-9-----X----9----9-----9----9---9---|-5-----5-----7-----7----7---7---|-9-----X----9----9-----9----9---9---|
A|-7-----X----7----7-----7----7---7---|-3-----3-----5-----5----5---5---|-7-----X----7----7-----7----7---7---|
E|------------------------------------|--------------------------------|------------------------------------|

E|--------------------------------|------------------------------------|--------------------------------|
B|--------------------------------|------------------------------------|--------------------------------|
G|-5-----5-----7-----7----7---7---|-9-----X----9----9-----9----9---9---|-5-----5-----7-----7----7---7---|
D|-5-----5-----7-----7----7---7---|-9-----X----9----9-----9----9---9---|-5-----5-----7-----7----7---7---|
A|-3-----3-----5-----5----5---5---|-7-----X----7----7-----7----7---7---|-3-----3-----5-----5----5---5---|
E|--------------------------------|------------------------------------|--------------------------------|

E|------------------------------------|--------------------------------|------------------------------------|
B|------------------------------------|--------------------------------|------------------------------------|
G|-9-----X----9----9-----9----9---9---|-5-----5-----7-----7----7---7---|-9-----X----9----9-----9----9---9---|
D|-9-----X----9----9-----9----9---9---|-5-----5-----7-----7----7---7---|-9-----X----9----9-----9----9---9---|
A|-7-----X----7----7-----7----7---7---|-3-----3-----5-----5----5---5---|-7-----X----7----7-----7----7---7---|
E|------------------------------------|--------------------------------|------------------------------------|

E|--------------------------------|---------------------------------|-----------------------------------------------------|
B|--------------------------------|---------------------------------|-----------------------------------------------------|
G|-5-----5-----7-----7----7---7---|-9----9----%-----5----5----%-----|-7----7----%----7----7-------------------------------|
D|-5-----5-----7-----7----7---7---|-9----9----%-----5----5----%-----|-7----7----%----7----7-----------4---5---4-----------|
A|-3-----3-----5-----5----5---5---|-7----7----------3----3----------|-5----5---------5----5---5---7---------------7---5---|
E|--------------------------------|---------------------------------|-----------------------------------------------------|

E|---------------------------------|-----------------------------------------------------|
B|---------------------------------|-----------------------------------------------------|
G|-9----9----%-----5----5----%-----|-7----7----%----7----7-------------------------------|
D|-9----9----%-----5----5----%-----|-7----7----%----7----7-----------4---5---4-----------|
A|-7----7----------3----3----------|-5----5---------5----5---5---7---------------7---5---|
E|---------------------------------|-----------------------------------------------------|

E|---------------------------------|-----------------------------------------------------|
B|---------------------------------|-----------------------------------------------------|
G|-12---12---%-----8----8----%-----|-10---10---%----10---10------------------------------|
D|-12---12---%-----8----8----%-----|-10---10---%----10---10----------7---8---7-----------|
A|-10---10---------6----6----------|-8----8---------8----8---8---10--------------10--8---|
E|---------------------------------|-----------------------------------------------------|

E|---------------------------------|-----------------------------------------------------|
B|---------------------------------|-----------------------------------------------------|
G|-12---12---%-----8----8----%-----|-10---10---%----10---10------------------------------|
D|-12---12---%-----8----8----%-----|-10---10---%----10---10----------7---8---7-----------|
A|-10---10---------6----6----------|-8----8---------8----8---8---10--------------10--8---|
E|---------------------------------|-----------------------------------------------------|

E|---------------------------------|-----------------------------------------------------|
B|---------------------------------|-----------------------------------------------------|
G|-9----9----%-----5----5----%-----|-7----7----%----7----7-------------------------------|
D|-9----9----%-----5----5----%-----|-7----7----%----7----7-----------4---5---4-----------|
A|-7----7----------3----3----------|-5----5---------5----5---5---7---------------7---5---|
E|---------------------------------|-----------------------------------------------------|

E|---------------------------------|-----------------------------------------------------|
B|---------------------------------|-----------------------------------------------------|
G|-9----9----%-----5----5----%-----|-7----7----%----7----7-------------------------------|
D|-9----9----%-----5----5----%-----|-7----7----%----7----7-----------4---5---4-----------|
A|-7----7----------3----3----------|-5----5---------5----5---5---7---------------7---5---|
E|---------------------------------|-----------------------------------------------------|

E|---------------------------------|-----------------------------------------------------|
B|---------------------------------|-----------------------------------------------------|
G|-12---12---%-----8----8----%-----|-10---10---%----10---10------------------------------|
D|-12---12---%-----8----8----%-----|-10---10---%----10---10----------7---8---7-----------|
A|-10---10---------6----6----------|-8----8---------8----8---8---10--------------10--8---|
E|---------------------------------|-----------------------------------------------------|

E|---------------------------------|----------------------------|-----------------------------------------------------------------|
B|---------------------------------|----------------------------|-----------------------------------------------------------------|
G|-12---12---%-----8----8----%-----|-10---10---%----10---10-----|-----------------------------------------------------------------|
D|-12---12---%-----8----8----%-----|-10---10---%----10---10-----|-2---5---4---5---4---5---4---5-------5---4---5---4---5---4---5---|
A|-10---10---------6----6----------|-8----8---------8----8------|---------------------------------3-------------------------------|
E|---------------------------------|----------------------------|-----------------------------------------------------------------|

E|-----------------------------------------------------------------|-----------------------------------------------------------------|
B|-----------------------------------------------------------------|-----------------------------------------------------------------|
G|-----------------------------------------------------------------|-----------------------------------------------------------------|
D|-0---5---4---5---4---5---4---5---4---0---2---4---5---4---2---0---|-2---5---4---5---4---5---4---5-------5---4---5---4---5---4---5---|
A|-----------------------------------------------------------------|---------------------------------3-------------------------------|
E|-----------------------------------------------------------------|-----------------------------------------------------------------|

E|----------------------------------------|-----------------------------------------------------------------|
B|----------------------------------------|-----------------------------------------------------------------|
G|----------------------------------------|-----------------------------------------------------------------|
D|-0---5---4---5---7---5---4--------------|-2---5---4---5---4---5---4---5-------5---4---5---4---5---4---5---|
A|-----------------------------7---5------|---------------------------------3-------------------------------|
E|----------------------------------------|-----------------------------------------------------------------|

E|-----------------------------------------------------------------|-----------------------------------------------------------------|
B|-----------------------------------------------------------------|-----------------------------------------------------------------|
G|-----------------------------------------------------------------|-----------------------------------------------------------------|
D|-0---5---4---5---4---5---4---5---4---0---2---4---5---4---2---0---|-2---5---4---5---4---5---4---5-------5---4---5---4---5---4---5---|
A|-----------------------------------------------------------------|---------------------------------3-------------------------------|
E|-----------------------------------------------------------------|-----------------------------------------------------------------|

E|----------------------------------------|-----------------------------------------------------------------|
B|----------------------------------------|-----------------------------------------------------------------|
G|----------------------------------------|-----------------------------------------------------------------|
D|-0---5---4---5---7---5---4--------------|-2---5---4---5---4---5---4---5-------5---4---5---4---5---4---5---|
A|-----------------------------7---5------|---------------------------------3-------------------------------|
E|----------------------------------------|-----------------------------------------------------------------|

E|-----------------------------------------------------------------|-----------------------------------------------------------------|
B|-----------------------------------------------------------------|-----------------------------------------------------------------|
G|-----------------------------------------------------------------|-----------------------------------------------------------------|
D|-0---5---4---5---4---5---4---5---4---0---2---4---5---4---2---0---|-2---5---4---5---4---5---4---5-------5---4---5---4---5---4---5---|
A|-----------------------------------------------------------------|---------------------------------3-------------------------------|
E|-----------------------------------------------------------------|-----------------------------------------------------------------|

E|----------------------------------------|-----------------------------------------------------------------|
B|----------------------------------------|-----------------------------------------------------------------|
G|----------------------------------------|-----------------------------------------------------------------|
D|-0---5---4---5---7---5---4--------------|-2---5---4---5---4---5---4---5-------5---4---5---4---5---4---5---|
A|-----------------------------7---5------|---------------------------------3-------------------------------|
E|----------------------------------------|-----------------------------------------------------------------|

E|-----------------------------------------------------------------|-----------------------------------------------------------------|
B|-----------------------------------------------------------------|-----------------------------------------------------------------|
G|-----------------------------------------------------------------|-----------------------------------------------------------------|
D|-0---5---4---5---4---5---4---5---4---0---2---4---5---4---2---0---|-2---5---4---5---4---5---4---5-------5---4---5---4---5---4---5---|
A|-----------------------------------------------------------------|---------------------------------3-------------------------------|
E|-----------------------------------------------------------------|-----------------------------------------------------------------|

E|----------------------------------------|-------------------------------------------------------------|
B|----------------------------------------|-------------------------------------------------------------|
G|----------------------------------------|-------------------------------------------------------------|
D|-0---5---4---5---7---5---4--------------|-------------------------------------------------------------|
A|-----------------------------7---5------|-7----7----7----7----7----7----3----3----3----3----3----3----|
E|----------------------------------------|-------------------------------------------------------------|

E|-------------------------------------------------------------|-------------------------------------------------------------|
B|-------------------------------------------------------------|-------------------------------------------------------------|
G|-------------------------------------------------------------|-------------------------------------------------------------|
D|-------------------------------4----5----4----5----4---------|-------------------------------------------------------------|
A|-5----5----5----5----5----5-----------------------------5----|-7----7----7----7----7----7----3----3----3----3----3----3----|
E|-------------------------------------------------------------|-------------------------------------------------------------|

E|-------------------------------------------------------------|-------------------------------------------------------------|
B|-------------------------------------------------------------|-------------------------------------------------------------|
G|-------------------------------------------------------------|-------------------------------------------------------------|
D|-------------------------------------------------------------|-------------------------------------------------------------|
A|-5----5----5----5----5----5----5----5----5----5----5----5----|-------------------------------------------------------------|
E|-------------------------------------------------------------|-3----3----3----3----3----3----3----3----3----3----3----3----|

E|-------------------------------------------------------------|-------------------------------------------------------------|
B|-------------------------------------------------------------|-------------------------------------------------------------|
G|-------------------------------------------------------------|-------------------------------------------------------------|
D|-------------------------------------------------------------|-------------------------------------------------------------|
A|-------------------------------2----2----2----2----3----5----|-------------------------------------------------------------|
E|-3----3----3----3----3----3----------------------------------|-3----3----3----3----3----3----3----3----3----3----3----3----|

E|-------------------------------------------------------------|-------------------------------------------------------------|
B|-------------------------------------------------------------|-------------------------------------------------------------|
G|-------------------------------------------------------------|-------------------------------------------------------------|
D|-------------------------------------------------------------|-------------------------------------------------------------|
A|-------------------------------2----2----2----2----3----5----|-7----7----7----7----7----7----5----5----5----5----5----5----|
E|-3----3----3----3----3----3----------------------------------|-------------------------------------------------------------|

E|-------------------------------------------------------------|-------------------------------------------------------------|
B|-------------------------------------------------------------|-------------------------------------------------------------|
G|-------------------------------------------------------------|-------------------------------------------------------------|
D|-5----5----5----5----5----5----------------------------------|-------------------------------------------------------------|
A|-------------------------------3----3----3----5----5----5----|-7----7----7----7----7----7----5----5----5----5----5----5----|
E|-------------------------------------------------------------|-------------------------------------------------------------|

E|-------------------------------------------------------------|-------------------------------------------------------------|
B|-------------------------------------------------------------|-------------------------------------------------------------|
G|------%---------%-------------------%---------%---------%----|-------------------------------------------------------------|
D|------%---------%-------------------%---------%---------%----|-------------------------------------------------------------|
A|-------------------------------------------------------------|-------------------------------------------------------------|
E|-3---------3---------3----3----3---------3---------3---------|-3----3----3----3----3----3----3----3----3----3----3----3----|

E|-------------------------------------------------------------|-------------------------------------------------------------|
B|-------------------------------------------------------------|-------------------------------------------------------------|
G|-------------------------------------------------------------|-------------------------------------------------------------|
D|-------------------------------------------------------------|-------------------------------------------------------------|
A|-------------------------------2----2----2----2----3----5----|-------------------------------------------------------------|
E|-3----3----3----3----3----3----------------------------------|-3----3----3----3----3----3----3----3----3----3----3----3----|

E|-------------------------------------------------------------|-------------------------------------------|
B|-------------------------------------------------------------|-------------------------------------------|
G|-------------------------------------------------------------|-10----10---9----7-------------------------|
D|-------------------------------------------------------------|----------------------10----10---9----7----|
A|-------------------------------2----2----2----2----3----5----|-------------------------------------------|
E|-3----3----3----3----3----3----------------------------------|-------------------------------------------|

E|------------------------|-------------------------------------------|---------|-------------------------------------------|
B|------8----------8------|-------------------------------------------|---------|-------------------------------------------|
G|-----------%------------|-10----10---9----7-------------------------|---------|-10----10---9----7-------------------------|
D|-----------%------------|----------------------10----10---9----7----|---------|----------------------10----10---9----7----|
A|-10---------------------|-------------------------------------------|-10------|-------------------------------------------|
E|------------------------|-------------------------------------------|---------|-------------------------------------------|

E|------------------------|-------------------------------------------|-------------------------------------------|
B|------8----------8------|-------------------------------------------|-------------------------------------------|
G|-----------%------------|-10----10---9----7-------------------------|-9-----9----9----11---12----12---11---12---|
D|-----------%------------|----------------------10----10---9----7----|-------------------------------------------|
A|-10---------------------|-------------------------------------------|-------------------------------------------|
E|------------------------|-------------------------------------------|-------------------------------------------|

E|----------------------------|-------------------------------------------|----------------------------|
B|-12-------------------------|-------------------------------------------|-12-------------------------|
G|------12---%----11---12-----|-9-----9----9----11---12----12---11---12---|------12---%----11---12-----|
D|-----------%----------------|-------------------------------------------|-----------%----------------|
A|----------------------------|-------------------------------------------|----------------------------|
E|----------------------------|-------------------------------------------|----------------------------|

E|-------------------------------------------|----------------------------|-------------------------------------------|
B|-------------------------------------------|-12-------------------------|-------------------------------------------|
G|-9-----9----9----11---12----12---11---12---|------12---%----11---12-----|-9-----9----9----11---12----12---11---12---|
D|-------------------------------------------|-----------%----------------|-------------------------------------------|
A|-------------------------------------------|----------------------------|-------------------------------------------|
E|-------------------------------------------|----------------------------|-------------------------------------------|

E|----------------------------|-------------------------------------------|---------------------------------|
B|-12-------------------------|-------------------------------------------|-12------------------------------|
G|------12---%----11---12-----|-9-----9----9----11---12----12---11---12---|------12---%----11---%----12-----|
D|-----------%----------------|-------------------------------------------|-----------%---------%-----------|
A|----------------------------|-------------------------------------------|---------------------------------|
E|----------------------------|-------------------------------------------|---------------------------------|

E|-------------------------------------------|---------------------------------|-------------------------------------------|
B|-------------------------------------------|-12------------------------------|-------------------------------------------|
G|-9-----9----9----11---12----12---11---12---|------12---%----11---%----12-----|-9-----9----9----11---12----12---11---12---|
D|-------------------------------------------|-----------%---------%-----------|-------------------------------------------|
A|-------------------------------------------|---------------------------------|-------------------------------------------|
E|-------------------------------------------|---------------------------------|-------------------------------------------|

E|---------------------------------|-------------------------------------------|---------------------------------|
B|-12------------------------------|-------------------------------------------|-12------------------------------|
G|------12---%----11---%----12-----|-9-----9----9----11---12----12---11---12---|------12---%----11---%----12-----|
D|-----------%---------%-----------|-------------------------------------------|-----------%---------%-----------|
A|---------------------------------|-------------------------------------------|---------------------------------|
E|---------------------------------|-------------------------------------------|---------------------------------|

E|---------------------------------------------------|---------------------------------------------------|
B|---------------------------------------------------|---------------------------------------------------|
G|---------------------------------------------------|---------------------------------------------------|
D|-4----4----4----4----4----4----4----4----4----4----|-4----4----4----4----4----4----4----4----4----4----|
A|-4----4----4----4----4----4----4----4----4----4----|-4----4----4----4----4----4----4----4----4----4----|
E|-2----2----2----2----2----2----2----2----2----2----|-2----2----2----2----2----2----2----2----2----2----|

E|-------------------------------------------|---------------------------------------------------|
B|-------------------------------------------|---------------------------------------------------|
G|-7-----7----7----7----9-----9----9----9----|--------------------------9----9----9----9----9----|
D|-7-----7----7----7----9-----9----9----9----|-4----4----4----4----4----9----9----9----9----9----|
A|-5-----5----5----5----7-----7----7----7----|-4----4----4----4----4----7----7----7----7----7----|
E|-------------------------------------------|-2----2----2----2----2-----------------------------|

E|---------------------------------------------------|---------------------------------------------------|
B|---------------------------------------------------|---------------------------------------------------|
G|---------------------------------------------------|---------------------------------------------------|
D|-4----4----4----4----4----4----4----4----4----4----|-4----4----4----4----4----4----4----4----4----4----|
A|-4----4----4----4----4----4----4----4----4----4----|-4----4----4----4----4----4----4----4----4----4----|
E|-2----2----2----2----2----2----2----2----2----2----|-2----2----2----2----2----2----2----2----2----2----|

E|-------------------------------------------|---------|---------|---------------------------------|
B|-------------------------------------------|---------|---------|-15-----15---15---15---15----13--|
G|-7-----7----7----7----9-----9----9----9----|---------|---------|---------------------------------|
D|-7-----7----7----7----9-----9----9----9----|-7-------|-7-------|---------------------------------|
A|-5-----5----5----5----7-----7----7----7----|-7-------|-7-------|---------------------------------|
E|-------------------------------------------|-5-------|-5-------|---------------------------------|

E|---------------15--|-15------15---14---12---|----------------------------------------------------|
B|-12------12--------|------------------------|-15---13---12---------------------------------------|
G|-------------------|------------------------|----------------14---12---11------------------------|
D|-------------------|------------------------|-------------------------------14----14---12---14---|
A|-------------------|------------------------|----------------------------------------------------|
E|-------------------|------------------------|----------------------------------------------------|

E|----------------------------------------------12-------------|-12---14---15---17---15---17---17-----|
B|----------------13---12--------15---13---12--------15---12---|--------------------------------------|
G|-12---11------------------14---------------------------------|--------------------------------------|
D|-----------14------------------------------------------------|--------------------------------------|
A|-------------------------------------------------------------|--------------------------------------|
E|-------------------------------------------------------------|--------------------------------------|

E|-17---17---17---15---15---15---17---17---17---14---14---14---|-17---15---14---15---14--------15---14-----------------------|
B|-------------------------------------------------------------|--------------------------17-------------17---15---13--------|
G|-------------------------------------------------------------|--------------------------------------------------------16---|
D|-------------------------------------------------------------|-------------------------------------------------------------|
A|-------------------------------------------------------------|-------------------------------------------------------------|
E|-------------------------------------------------------------|-------------------------------------------------------------|

E|--------------------------------------|----------------------------------------------------|
B|-17-----------------------------------|----------------------------------------------------|
G|--------------------------------------|----------------------------------------------2-----|
D|-----------------------4----2----4----|----------------4----2----4-------------------------|
A|--------------------------------------|----------------------------------------------------|
E|--------2----2----2-------------------|-2----2----2-------------------2----2----2----------|

E|-------------------------------------------------------------|----------------------------------------------------|
B|-------------------------------------------------------------|----------------------------------------------------|
G|-------------------------------------------------------------|----------------------------------------------2-----|
D|----------------4----2----4-------------------4----2----4----|----------------4----2----4-------------------------|
A|-------------------------------------------------------------|----------------------------------------------------|
E|-2----2----2-------------------2----2----2-------------------|-2----2----2-------------------2----2----2----------|

E|-------------------------------------------------------------|----------------------------------------------------|
B|-------------------------------------------------------------|----------------------------------------------------|
G|-------------------------------------------------------------|----------------------------------------------2-----|
D|----------------4----2----4-------------------4----2----4----|----------------4----2----4-------------------------|
A|-------------------------------------------------------------|----------------------------------------------------|
E|-2----2----2-------------------2----2----2-------------------|-2----2----2-------------------2----2----2----------|

E|-------------------------------------------------------------|----------------------------------------------------|
B|-------------------------------------------------------------|----------------------------------------------------|
G|-------------------------------------------------------------|----------------------------------------------2-----|
D|----------------4----2----4-------------------4----2----4----|----------------4----2----4-------------------------|
A|-------------------------------------------------------------|----------------------------------------------------|
E|-2----2----2-------------------2----2----2-------------------|-2----2----2-------------------2----2----2----------|

E|-------------------------------------------|----------------------------|-------------------------------------------|
B|-------------------------------------------|-12-------------------------|-------------------------------------------|
G|-9-----9----9----11---12----12---11---12---|------12---%----11---12-----|-9-----9----9----11---12----12---11---12---|
D|-------------------------------------------|-----------%----------------|-------------------------------------------|
A|-------------------------------------------|----------------------------|-------------------------------------------|
E|-------------------------------------------|----------------------------|-------------------------------------------|

E|----------------------------|-------------------------------------------|----------------------------|
B|-12-------------------------|-------------------------------------------|-12-------------------------|
G|------12---%----11---12-----|-9-----9----9----11---12----12---11---12---|------12---%----11---12-----|
D|-----------%----------------|-------------------------------------------|-----------%----------------|
A|----------------------------|-------------------------------------------|----------------------------|
E|----------------------------|-------------------------------------------|----------------------------|

E|-------------------------------------------|----------------------------|-------------------------------------------|
B|-------------------------------------------|-12-------------------------|-------------------------------------------|
G|-9-----9----9----11---12----12---11---12---|------12---%----11---12-----|-9-----9----9----11---12----12---11---12---|
D|-------------------------------------------|-----------%----------------|-------------------------------------------|
A|-------------------------------------------|----------------------------|-------------------------------------------|
E|-------------------------------------------|----------------------------|-------------------------------------------|

E|---------------------------------|-------------------------------------------|---------------------------------|
B|-12------------------------------|-------------------------------------------|-12------------------------------|
G|------12---%----11---%----12-----|-9-----9----9----11---12----12---11---12---|------12---%----11---%----12-----|
D|-----------%---------%-----------|-------------------------------------------|-----------%---------%-----------|
A|---------------------------------|-------------------------------------------|---------------------------------|
E|---------------------------------|-------------------------------------------|---------------------------------|

E|-------------------------------------------|---------------------------------|-----------------------------------------------|
B|-------------------------------------------|-12------------------------------|-----------------------------------------------|
G|-9-----9----9----11---12----12---11---12---|------12---%----11---%----12-----|-4---------4---------5---4---5----7---5---7----|
D|-------------------------------------------|-----------%---------%-----------|------4---------4------------------------------|
A|-------------------------------------------|---------------------------------|-----------------------------------------------|
E|-------------------------------------------|---------------------------------|-----------------------------------------------|

E|---------------------------------|-----------------------------------------------------|
B|---------------------------------|-----------------------------------------------------|
G|-9----9----%-----5----5----%-----|-7----7----%----7----7-------------------------------|
D|-9----9----%-----5----5----%-----|-7----7----%----7----7-----------4---5---4-----------|
A|-7----7----------3----3----------|-5----5---------5----5---5---7---------------7---5---|
E|---------------------------------|-----------------------------------------------------|

E|---------------------------------|-----------------------------------------------------|
B|---------------------------------|-----------------------------------------------------|
G|-9----9----%-----5----5----%-----|-7----7----%----7----7-------------------------------|
D|-9----9----%-----5----5----%-----|-7----7----%----7----7-----------4---5---4-----------|
A|-7----7----------3----3----------|-5----5---------5----5---5---7---------------7---5---|
E|---------------------------------|-----------------------------------------------------|

E|---------------------------------|-----------------------------------------------------|
B|---------------------------------|-----------------------------------------------------|
G|-12---12---%-----8----8----%-----|-10---10---%----10---10------------------------------|
D|-12---12---%-----8----8----%-----|-10---10---%----10---10----------7---8---7-----------|
A|-10---10---------6----6----------|-8----8---------8----8---8---10--------------10--8---|
E|---------------------------------|-----------------------------------------------------|

E|---------------------------------|-----------------------------------------------|
B|---------------------------------|-----------------------------------------------|
G|-12---12---%-----8----8----%-----|-10---10---10---10--10--10---10---10--10-------|
D|-12---12---%-----8----8----%-----|-10---10---10---10--10--10---10---10--10-------|
A|-10---10---------6----6----------|-8----8----8----8---8---8----8----8---8--------|
E|---------------------------------|------------------------------------------0----|

E|---------|---------|---------|
B|---------|---------|---------|
G|-9-------|-9-------|-9-------|
D|-9-------|-9-------|-9-------|
A|-7-------|-7-------|-7-------|
E|-0-------|-0-------|-0-------|
Iron Maiden - Infinite Dreams
Iron Maiden - Infinite Dreams.gp3