Iron Maiden - Innocent Exile

Iron Maiden



Title: Innocent Exile
Album: 
Artist: 
Author: Iron Maiden

Track 1: Guitar I
E|---------|---------|---------|-------------------10--8---|-10------|-10------10---8---7---|
B|---------|---------|---------|---------------------------|---------|----------------------|
G|-%-------|-%-------|-%-------|-%------%-----%------------|---------|----------------------|
D|-%-------|-%-------|-%-------|-%------%-----%------------|---------|----------------------|
A|---------|---------|---------|---------------------------|---------|----------------------|
E|---------|---------|---------|---------------------------|---------|----------------------|

E|-8-------|-8-------8----10--8---|-10------|-10------10---13--12--|-13------|-15-----13-----10--8---|
B|---------|----------------------|---------|----------------------|---------|-----------------------|
G|---------|----------------------|---------|----------------------|---------|-----------------------|
D|---------|----------------------|---------|----------------------|---------|-----------------------|
A|---------|----------------------|---------|----------------------|---------|-----------------------|
E|---------|----------------------|---------|----------------------|---------|-----------------------|

E|-10------|-10------10---8---7---|-8-------|-8-------8----10--8---|-10------|-10------10---13--12--|
B|---------|----------------------|---------|----------------------|---------|----------------------|
G|---------|----------------------|---------|----------------------|---------|----------------------|
D|---------|----------------------|---------|----------------------|---------|----------------------|
A|---------|----------------------|---------|----------------------|---------|----------------------|
E|---------|----------------------|---------|----------------------|---------|----------------------|

E|-13------|-13------|-------------------------------------|-----------------------------------------|
B|---------|---------|-------------------------------------|-----------------------------------------|
G|---------|---------|-----------%-------------------------|-%---------------------------------------|
D|---------|---------|-0----0----%----0----3-----0----0----|-%----0----3----0----0-------------------|
A|---------|---------|-------------------------------------|--------------------------0----3----3----|
E|---------|---------|-------------------------------------|-----------------------------------------|

E|-------------------------------------|-----------------------------------------|-------------------------------------|
B|-------------------------------------|-----------------------------------------|-------------------------------------|
G|-----------%-------------------------|-%-------------------0-------------------|-----------%-------------------------|
D|-0----0----%----0----3-----0----0----|-%----0----3----0---------3----0---------|-----------%---------1---------------|
A|-------------------------------------|------------------------------------4----|-3----3---------3----------3----3----|
E|-------------------------------------|-----------------------------------------|-------------------------------------|

E|-----------------------------------------|-------------------------------------|-----------------------------------------|
B|-----------------------------------------|-------------------------------------|-----------------------------------------|
G|-%---------------------------------------|-----------%-------------------------|-%---------------------------------------|
D|-%---------3-----------------------------|-----------%---------1---------------|-%---------1-----------------------------|
A|------3---------3----3----0----1----2----|-3----3---------3----------3----3----|------3---------3----3----0----4----0----|
E|-----------------------------------------|-------------------------------------|-----------------------------------------|

E|-------------------------------------|-----------------------------------------|-------------------------------------|
B|-------------------------------------|-----------------------------------------|-------------------------------------|
G|-----------%-------------------------|-%---------------------------------------|-----------%-------------------------|
D|-0----0----%----0----3-----0----0----|-%----0----3----0----0-------------------|-0----0----%----0----3-----0----0----|
A|-------------------------------------|--------------------------0----3----3----|-------------------------------------|
E|-------------------------------------|-----------------------------------------|-------------------------------------|

E|-----------------------------------------|-------------------------------------|-----------------------------------------|
B|-----------------------------------------|-------------------------------------|-----------------------------------------|
G|-%-------------------0-------------------|-----------%-------------------------|-%---------------------------------------|
D|-%----0----3----0---------3----0---------|-----------%---------1---------------|-%---------3-----------------------------|
A|------------------------------------4----|-3----3---------3----------3----3----|------3---------3----3----0----1----2----|
E|-----------------------------------------|-------------------------------------|-----------------------------------------|

E|-------------------------------------|-----------------------------------------|-1-----------------1-----|
B|-------------------------------------|-----------------------------------------|--------3----3-----------|
G|-----------%-------------------------|-%----------------------------------%----|-------------------------|
D|-----------%---------1---------------|-%---------1------------------------%----|-------------------------|
A|-3----3---------3----------3----3----|------3---------3----3----0----4---------|-------------------------|
E|-------------------------------------|-----------------------------------------|-------------------------|

E|-3-----------------3-----|-5-----------------5-----|-5------5----5-----3-----|-5-----------------5-----|
B|--------3----3-----------|--------3----3-----------|-------------------------|--------3----3-----------|
G|-------------------------|-------------------------|-------------------------|-------------------------|
D|-------------------------|-------------------------|-------------------------|-------------------------|
A|-------------------------|-------------------------|-------------------------|-------------------------|
E|-------------------------|-------------------------|-------------------------|-------------------------|

E|-3-----------------3-----|-1-----------------1-----|-0-----------------0-----|-1-----------------1-----|
B|--------3----3-----------|--------3----3-----------|--------3----3-----------|--------3----3-----------|
G|-------------------------|-------------------------|-------------------------|-------------------------|
D|-------------------------|-------------------------|-------------------------|-------------------------|
A|-------------------------|-------------------------|-------------------------|-------------------------|
E|-------------------------|-------------------------|-------------------------|-------------------------|

E|---------|---------|---------|---------|---------------|------------------------|
B|-5-------|-5-------|-5-------|-5-------|-5-------8-----|-8------5-----3----1----|
G|---------|---------|---------|---------|---------------|------------------------|
D|---------|---------|---------|---------|---------------|------------------------|
A|---------|---------|---------|---------|---------------|------------------------|
E|---------|---------|---------|---------|---------------|------------------------|

E|--------------------|-----------------------------|-5-------8-----|-8-------3-----|
B|-3-----5-----10-----|-10---5-----3----1-----------|---------------|---------------|
G|--------------------|----------------------2------|---------------|---------------|
D|--------------------|-----------------------------|---------------|---------------|
A|--------------------|-----------------------------|---------------|---------------|
E|--------------------|-----------------------------|---------------|---------------|

E|-5-------10----|-10------|--------------------|-----------0------------|-----------0------------|
B|---------------|---------|--------1-----------|-----------1------------|-----------1------------|
G|---------------|---------|-2-----------2------|-0----2----------2------|-0----2----------2------|
D|---------------|---------|--------------------|------------------------|------------------------|
A|---------------|---------|--------------------|------------------------|------------------------|
E|---------------|---------|--------------------|------------------------|------------------------|

E|-2---------2---------2----0------|--------------------|-----------0------------|-----------0------------|
B|-3---------3---------3----1------|--------1-----------|-----------1------------|-----------1------------|
G|------%---------%----------------|-2-----------2------|-0----2----------2------|-0----2----------2------|
D|------%---------%----------------|--------------------|------------------------|------------------------|
A|---------------------------------|--------------------|------------------------|------------------------|
E|---------------------------------|--------------------|------------------------|------------------------|

E|-2---------2---------2----0------|--------------------|-----------0------------|-----------0------------|
B|-3---------3---------3----1------|--------1-----------|-----------1------------|-----------1------------|
G|------%---------%----------------|-2-----------2------|-0----2----------2------|-0----2----------2------|
D|------%---------%----------------|--------------------|------------------------|------------------------|
A|---------------------------------|--------------------|------------------------|------------------------|
E|---------------------------------|--------------------|------------------------|------------------------|

E|-2---------2---------2----0------|--------------------|-----------0------------|-----------0------------|
B|-3---------3---------3----1------|--------1-----------|-----------1------------|-----------1------------|
G|------%---------%----------------|-2-----------2------|-0----2----------2------|-0----2----------2------|
D|------%---------%----------------|--------------------|------------------------|------------------------|
A|---------------------------------|--------------------|------------------------|------------------------|
E|---------------------------------|--------------------|------------------------|------------------------|

E|-2---------2---------2----0------|---------|---------|---------|---------|---------|
B|-3---------3---------3----1------|---------|---------|---------|---------|---------|
G|------%---------%----------------|-9-------|-9-------|-%-------|-%-------|-%-------|
D|------%---------%----------------|-9-------|-9-------|-%-------|-%-------|-%-------|
A|---------------------------------|-7-------|-7-------|---------|---------|---------|
E|---------------------------------|---------|---------|---------|---------|---------|

E|-------------------10--8---|-10------|-10------10---8---7---|-8-------|-8-------8----10--8---|
B|---------------------------|---------|----------------------|---------|----------------------|
G|-%------%-----%------------|---------|----------------------|---------|----------------------|
D|-%------%-----%------------|---------|----------------------|---------|----------------------|
A|---------------------------|---------|----------------------|---------|----------------------|
E|---------------------------|---------|----------------------|---------|----------------------|

E|-10------|-10------10---13--12--|-13------|-15-----13-----10--8---|-10------|-10------10---8---7---|
B|---------|----------------------|---------|-----------------------|---------|----------------------|
G|---------|----------------------|---------|-----------------------|---------|----------------------|
D|---------|----------------------|---------|-----------------------|---------|----------------------|
A|---------|----------------------|---------|-----------------------|---------|----------------------|
E|---------|----------------------|---------|-----------------------|---------|----------------------|

E|-8-------|-8-------8----10--8---|-10------|-10------10---13--12--|-13------|-13------|
B|---------|----------------------|---------|----------------------|---------|---------|
G|---------|----------------------|---------|----------------------|---------|---------|
D|---------|----------------------|---------|----------------------|---------|---------|
A|---------|----------------------|---------|----------------------|---------|---------|
E|---------|----------------------|---------|----------------------|---------|---------|

E|----------------------------------------------------|----------------------------------------------------|
B|----------------------------------------------------|----------------------------------------------------|
G|----------------------------------------------------|----------------------------------------------------|
D|-0----0----0----------0----0------------------------|-0----0----0----------0----0------------------------|
A|----------------3---------------0----3----3----3----|----------------3---------------0----3----3----3----|
E|----------------------------------------------------|----------------------------------------------------|

E|----------------------------------------------------|----------------------------------------------------|
B|----------------------------------------------------|----------------------------------------------------|
G|----------------------------------------------------|----------------------------------------------------|
D|-0----0----0----------0----0------------------------|-0----0----0----------0----0------------------------|
A|----------------3---------------0----3----3----3----|----------------3---------------0----3----3----3----|
E|----------------------------------------------------|----------------------------------------------------|

E|----------------------------------------------------|----------------------------------------------------|
B|----------------------------------------------------|----------------------------------------------------|
G|----------------------------------------------------|----------------------------------------------------|
D|-0----0----0----------0----0------------------------|-0----0----0----------0----0------------------------|
A|----------------3---------------0----3----3----3----|----------------3---------------0----3----3----3----|
E|----------------------------------------------------|----------------------------------------------------|

E|----------------------------------------------------|---------------|---------|---------|
B|----------------------------------------------------|---------------|---------|---------|
G|----------------------------------------------------|-%-------------|---------|---------|
D|-0----0----0----------0----0------------------------|-%-------------|---------|---------|
A|----------------3---------------0----3----3----3----|--------3------|-3-------|-3-------|
E|----------------------------------------------------|---------------|---------|---------|

E|-7-------|-7----7----7-----------------10---|-8------10---13---10---13----|-13------13----|
B|-8-------|-8----8----8----6-----6-----------|-----------------------------|---------------|
G|---------|----------------------------------|-----------------------------|---------------|
D|---------|----------------------------------|-----------------------------|---------------|
A|---------|----------------------------------|-----------------------------|---------------|
E|---------|----------------------------------|-----------------------------|---------------|

E|-13---13---10---13---10--------10---10---13---10--13--10------|-10---10---13---10--13--10------10---10---13---10--13--10------|
B|--------------------------13------------------------------13--|----------------------------13---------------------------------|
G|--------------------------------------------------------------|-----------------------------------------------------------14--|
D|--------------------------------------------------------------|---------------------------------------------------------------|
A|--------------------------------------------------------------|---------------------------------------------------------------|
E|--------------------------------------------------------------|---------------------------------------------------------------|

E|-10---10---13---10--13--10------------------------------------------|-15----13--15--13---13--------------|
B|----------------------------13--10--13--10------10--13--10------10--|-------------------------13---------|
G|--------------------------------------------12--------------13------|-------------------------------%----|
D|--------------------------------------------------------------------|-------------------------------%----|
A|--------------------------------------------------------------------|------------------------------------|
E|--------------------------------------------------------------------|------------------------------------|

E|-10----10----10----10---10--------10-------------|-----------------------------------------------|
B|-----------------------------13--------13---12---|-13---12--------12-----------------------------|
G|-------------------------------------------------|-----------14--------14---12---12--------------|
D|-------------------------------------------------|------------------------------------13----10---|
A|-------------------------------------------------|-----------------------------------------------|
E|-------------------------------------------------|-----------------------------------------------|

E|-------------------------------------------------------------|-----------------------------------------13---15---15---17---|
B|-------------------------------------------------------------|-13---10---13---15---13---15---17---X------------------------|
G|-----------------------------------------12---14---12---14---|-------------------------------------------------------------|
D|-12---10---12---13---12---13---17---13-----------------------|-------------------------------------------------------------|
A|-------------------------------------------------------------|-------------------------------------------------------------|
E|-------------------------------------------------------------|-------------------------------------------------------------|

E|-17------17---17---15---|-15----12-----------|-3------3----3----1----3----3----1----|
B|------------------------|--------------------|--------------------------------------|
G|------------------------|--------------%-----|--------------------------------------|
D|------------------------|--------------%-----|--------------------------------------|
A|------------------------|--------------------|--------------------------------------|
E|------------------------|--------------------|--------------------------------------|

E|-1------3------8----|-8-------10---10---10---|------10--------10--------10--------10------------------10---|
B|--------------------|------------------------|-13--------13--------13--------13--------13---13---13--------|
G|--------------------|------------------------|-------------------------------------------------------------|
D|--------------------|------------------------|-------------------------------------------------------------|
A|--------------------|------------------------|-------------------------------------------------------------|
E|--------------------|------------------------|-------------------------------------------------------------|

E|-13---10---12---10--------10---13---10---12---10--------10---|-13---10---12---10--------10---------------------------------|
B|---------------------13----------------------------13--------|---------------------13--------13---13---15---13---13--------|
G|-------------------------------------------------------------|--------------------------------------------------------14---|
D|-------------------------------------------------------------|-------------------------------------------------------------|
A|-------------------------------------------------------------|-------------------------------------------------------------|
E|-------------------------------------------------------------|-------------------------------------------------------------|

E|-------------------------------------------------------------|--------------------------------------|
B|-13---10--------13---10--------------------------------------|--------------------------------------|
G|-----------12-------------13---12---10--------12--------10---|---------------------------------10---|
D|-----------------------------------------12--------12--------|-12---10------------------------------|
A|-------------------------------------------------------------|-----------12---10---8----8-----------|
E|-------------------------------------------------------------|--------------------------------------|

E|-------------------------------------------------------------|----------------------------------------------------|
B|-------------------------------------------------------------|----------------------------------------------------|
G|-10---12---13---14---13---12---10---12---13---14---13---12---|-10---12---13---14---13---12---10---12---10---10----|
D|-------------------------------------------------------------|----------------------------------------------------|
A|-------------------------------------------------------------|----------------------------------------------------|
E|-------------------------------------------------------------|----------------------------------------------------|

E|-------------------------------------------------------------|-----------------------------------------------13---|
B|-------------------------------------------------------------|----------------------------------------------------|
G|-------------------------------------------------------------|-------------------------------------%----%---------|
D|-12---10-----------------------------------------------------|-------------------------------------%----%---------|
A|-----------12---11---10---8----10---8------------------------|------8---------8---------8-------------------------|
E|-----------------------------------------10---8----8----10---|-10--------10--------10--------10-------------------|

E|-15---15---15---15---15---15---15---15---15---15---15---15---|-13---15---15---15---15---15---------------------------------|
B|-------------------------------------------------------------|-------------------------------------------------------------|
G|-------------------------------------------------------------|-------------------------------------------------------------|
D|-------------------------------------------------------------|-------------------------------------------------------------|
A|-------------------------------------------------------------|-------------------------------10---10---10---10---10---10---|
E|-------------------------------------------------------------|-------------------------------------------------------------|

E|------------------------|---------------|----------------------------------------------------|
B|-10------10---10---13---|-15-----15-----|----------------------------------------------------|
G|------------------------|---------------|----------------------------------------------------|
D|------------------------|---------------|-0----0----0----3-----0----0------------------------|
A|------------------------|---------------|--------------------------------0----3----3----3----|
E|------------------------|---------------|----------------------------------------------------|

E|----------------------------------------------------|----------------------------------------------------|
B|----------------------------------------------------|----------------------------------------------------|
G|----------------------------------------------------|----------------------------------------------------|
D|-0----0----0----3-----0----0------------------------|-0----0----0----3-----0----0------------------------|
A|--------------------------------0----3----3----3----|--------------------------------0----3----3----3----|
E|----------------------------------------------------|----------------------------------------------------|

E|----------------------------------------------------|----------------------------------------------------|
B|----------------------------------------------------|----------------------------------------------------|
G|----------------------------------------------------|----------------------------------------------------|
D|-0----0----0----3-----0----0------------------------|-0----0----0----3-----0----0------------------------|
A|--------------------------------0----3----3----3----|--------------------------------0----3----3----3----|
E|----------------------------------------------------|----------------------------------------------------|

E|----------------------------------------------------|----------------------------------------------------|
B|----------------------------------------------------|----------------------------------------------------|
G|----------------------------------------------------|----------------------------------------------------|
D|-0----0----0----3-----0----0------------------------|-0----0----0----3-----0----0------------------------|
A|--------------------------------0----3----3----3----|--------------------------------0----3----3----3----|
E|----------------------------------------------------|----------------------------------------------------|

E|----------------------------------------------------|-------------------------------------------|
B|----------------------------------------------------|-------------------------------------------|
G|----------------------------------------------------|-------------------------------------------|
D|-0----0----0----3-----0----0------------------------|-7-----X----X----X----7-----X----X----X----|
A|--------------------------------0----3----3----3----|-5-----X----X----X----5-----X----X----X----|
E|----------------------------------------------------|-------------------------------------------|

E|-------------------------------------------|-------------------------------------------|
B|-------------------------------------------|-------------------------------------------|
G|-------------------------------------------|-------------------------------------------|
D|-5-----X----X----X----5-----X----X----X----|-3-----X----X----X----3-----X----X----X----|
A|-3-----X----X----X----3-----X----X----X----|-1-----X----X----X----1-----X----X----X----|
E|-------------------------------------------|-------------------------------------------|

E|----------------------------------|-------------------------------------------|-------------------------------------------|
B|----------------------------------|-------------------------------------------|-------------------------------------------|
G|----------------------------------|-------------------------------------------|-------------------------------------------|
D|-2-----X----X----X----3-----5-----|-7-----X----X----X----7-----X----X----X----|-5-----X----X----X----5-----X----X----X----|
A|-0-----X----X----X----1-----3-----|-5-----X----X----X----5-----X----X----X----|-3-----X----X----X----3-----X----X----X----|
E|----------------------------------|-------------------------------------------|-------------------------------------------|

E|-------------------------------------------|----------------------------------|---------------------------------|
B|-------------------------------------------|----------------------------------|---------------------------------|
G|-------------------------------------------|----------------------------------|---------------------------%-----|
D|-3-----X----X----X----3-----X----X----X----|-2-----X----X----X----3-----5-----|-7----7----7----7----7-----%-----|
A|-1-----X----X----X----1-----X----X----X----|-0-----X----X----X----1-----3-----|-5----5----5----5----5-----------|
E|-------------------------------------------|----------------------------------|---------------------------------|

E|---------------------------------|---------------------------------|-----------------------------------------|
B|---------------------------------|---------------------------------|-----------------------------------------|
G|---------------------------%-----|---------------------------%-----|-----------%-----------------------------|
D|-5----5----5----5----5-----%-----|-3----3----3----3----3-----%-----|-2----2----%----2----2----2----2----2----|
A|-3----3----3----3----3-----------|-1----1----1----1----1-----------|-0----0---------0----0----0----0----0----|
E|---------------------------------|---------------------------------|-----------------------------------------|

E|---------------------------------|---------------------------------|---------------------------------|
B|---------------------------------|---------------------------------|---------------------------------|
G|---------------------------%-----|---------------------------%-----|---------------------------%-----|
D|-7----7----7----7----7-----%-----|-5----5----5----5----5-----%-----|-3----3----3----3----3-----%-----|
A|-5----5----5----5----5-----------|-3----3----3----3----3-----------|-1----1----1----1----1-----------|
E|---------------------------------|---------------------------------|---------------------------------|

E|---------------|---------------|---------------|---------------|---------|---------|
B|---------------|---------------|---------------|---------------|---------|---------|
G|---------------|---------------|---------------|---------------|-7-------|-7-------|
D|---------------|---------------|---------------|---------------|-7-------|-7-------|
A|---------------|---------------|---------------|---------------|-5-------|-5-------|
E|-5------6------|-5------6------|-5------3------|-1------0------|---------|---------|

E|---------|---------|---------------|
B|---------|---------|---------------|
G|-7-------|-7-------|-7------%------|
D|-7-------|-7-------|-7------%------|
A|-5-------|-5-------|-5-------------|
E|---------|---------|---------------|
Iron Maiden - Innocent Exile
Iron Maiden - Innocent Exile.gp3