Iron Maiden - Invasion

Iron Maiden - Invasion

Iron Maiden



Title: Invasion
Album: Sound House Tapes
Artist: Iron Maiden
Author: Iron Maiden

Track 1: Distortion Guitar 1
E|---------|---------|---------|-----------------------------|-------------------------------------|
B|---------|---------|---------|-----------------------------|-------------------------------------|
G|-%-------|-%-------|-%-------|-----------------------------|-------------------------------------|
D|-%-------|-%-------|-%-------|-9-----9---------------7-----|-------------------------------------|
A|---------|---------|---------|-7-----7-----5----7----------|-7---------7-------------------5-----|
E|---------|---------|---------|-----------------------------|-5----5----5----8----8----5----------|

E|-----------------------------|-------------------------------------|-----------------------------|
B|-----------------------------|-------------------------------------|-----------------------------|
G|-----------------------------|-------------------------------------|-----------------------------|
D|-9-----9---------------7-----|-------------------------------------|-9-----9---------------7-----|
A|-7-----7-----5----7----------|-7---------7-------------------5-----|-7-----7-----5----7----------|
E|-----------------------------|-5----5----5----8----8----5----------|-----------------------------|

E|-------------------------------------|-----------------------------|-------------------------------------|
B|-------------------------------------|-----------------------------|-------------------------------------|
G|-------------------------------------|-----------------------------|-------------------------------------|
D|-------------------------------------|-9-----9---------------7-----|-------------------------------------|
A|-7---------7-------------------5-----|-7-----7-----5----7----------|-7---------7-------------------5-----|
E|-5----5----5----8----8----5----------|-----------------------------|-5----5----5----8----8----5----------|

E|---------------------------------|---------------------------------|---------------------------------|
B|---------------------------------|---------------------------------|---------------------------------|
G|---------------------------------|---------------------------------|---------------------------------|
D|-5-----5----5----5----5----5-----|---------------------------------|-5-----5----5----5----5----5-----|
A|-3-----3----3----3----3----3-----|-5-----5----3----3----3----3-----|-3-----3----3----3----3----3-----|
E|---------------------------------|-3-----3----1----1----1----1-----|---------------------------------|

E|---------------------------------|-------------------------------------|-----------------------------|
B|---------------------------------|-------------------------------------|-----------------------------|
G|---------------------------------|-------------------------------------|-----------------------------|
D|---------------------------------|-------------------------------------|-9-----9---------------7-----|
A|-5-----5----3----3----3----3-----|-5-----5-----5-----5-----5-----5-----|-7-----7-----5----7----------|
E|-3-----3----1----1----1----1-----|-3-----3-----3-----3-----3-----3-----|-----------------------------|

E|-------------------------------------|-----------------------------|-------------------------------------|
B|-------------------------------------|-----------------------------|-------------------------------------|
G|-------------------------------------|-----------------------------|-------------------------------------|
D|-------------------------------------|-9-----9---------------7-----|-------------------------------------|
A|-7---------7-------------------5-----|-7-----7-----5----7----------|-7---------7-------------------5-----|
E|-5----5----5----8----8----5----------|-----------------------------|-5----5----5----8----8----5----------|

E|-------------------------------------|-------------------------------------|-------------------------------------|
B|-------------------------------------|-------------------------------------|-------------------------------------|
G|-9-----9----11---11---12---12---X----|-9-----9----11---11---12---12---X----|-9-----9----11---11---12---12---X----|
D|-7-----7----9----9----10---10---X----|-7-----7----9----9----10---10---X----|-7-----7----9----9----10---10---X----|
A|-------------------------------------|-------------------------------------|-------------------------------------|
E|-------------------------------------|-------------------------------------|-------------------------------------|

E|-------------------------------------|-------------------------------------|-------------------------------------|
B|-------------------------------------|-------------------------------------|-------------------------------------|
G|-12----12---11---11---9----9----X----|-9-----9----11---11---12---12---X----|-9-----9----11---11---12---12---X----|
D|-10----10---9----9----7----7----X----|-7-----7----9----9----10---10---X----|-7-----7----9----9----10---10---X----|
A|-------------------------------------|-------------------------------------|-------------------------------------|
E|-------------------------------------|-------------------------------------|-------------------------------------|

E|-------------------------------------|-------------------------------------|---------------------------------|
B|-------------------------------------|-------------------------------------|---------------------------------|
G|-9-----9----11---11---12---12---X----|-12----12---11---11---9----9----X----|---------------------------------|
D|-7-----7----9----9----10---10---X----|-10----10---9----9----7----7----X----|-12----12---12---12---12---12----|
A|-------------------------------------|-------------------------------------|-10----10---10---10---10---10----|
E|-------------------------------------|-------------------------------------|---------------------------------|

E|-----------------------------|-----------------------------|-----------------------------|
B|-----------------------------|-----------------------------|-----------------------------|
G|-----------------------------|-------%---------------------|-------%---------------------|
D|-10----10---10---10----9-----|-7-----%----7----7-----------|-7-----%----7----7-----------|
A|-8-----8----8----8-----7-----|-5----------5----5-----3-----|-5----------5----5-----3-----|
E|-----------------------------|-----------------------------|-----------------------------|

E|---------------------------------|-----------------------------|-----------------------------|
B|---------------------------------|-----------------------------|-----------------------------|
G|---------------------------------|-----------------------------|-------%---------------------|
D|-12----12---12---12---12---12----|-10----10---10---10----9-----|-7-----%----7----7-----------|
A|-10----10---10---10---10---10----|-8-----8----8----8-----7-----|-5----------5----5-----3-----|
E|---------------------------------|-----------------------------|-----------------------------|

E|-----------------------------|-----------------------------------------|-------------------------|
B|-----------------------------|-----------------------------------------|-------------------------|
G|-------%---------------------|-----------------------------------------|-------%-----------%-----|
D|-7-----%----7----7-----------|-5---------5---------5---------5---------|-------%-----------%-----|
A|-5----------5----5-----3-----|-3----3----2----2----3----3----2----2----|-5-----------3-----------|
E|-----------------------------|-----------------------------------------|-3-----------1-----------|

E|-------------------|-------------------|-------------------|-------------------|-------------------|
B|-------------------|-------------------|-------------------|-------------------|-------------------|
G|-------------------|-------------------|-------------------|-------------------|-------------------|
D|-4-------4----4----|-4-------X----5----|-5-------5----5----|-5-------X----4----|-4-------4----4----|
A|-2-------2----2----|-2-------X----3----|-3-------3----3----|-3-------X----2----|-2-------2----2----|
E|-------------------|-------------------|-------------------|-------------------|-------------------|

E|-------------------|-------------------|-------------------|-------------------|-------------------|
B|-------------------|-------------------|-------------------|-------------------|-------------------|
G|-------------------|-------------------|-------------------|-------------------|-------------------|
D|-4-------X----5----|-5-------5----5----|-5-------X----2----|-2-------2----2----|-2-------X----3----|
A|-2-------X----3----|-3-------3----3----|-3-------X----0----|-0-------0----0----|-0-------X----1----|
E|-------------------|-------------------|-------------------|-------------------|-------------------|

E|-------------------|-------------------|-------------------|-------------------|-------------------|
B|-------------------|-------------------|-------------------|-------------------|-------------------|
G|-------------------|-------------------|-------------------|-------------------|-------------------|
D|-3-------3----3----|-3-------X----2----|-2-------2----2----|-2-------X----3----|-3-------3----3----|
A|-1-------1----1----|-1-------X----0----|-0-------0----0----|-0-------X----1----|-1-------1----1----|
E|-------------------|-------------------|-------------------|-------------------|-------------------|

E|---------|---------------------------------|---------------------------------|---------------------------------|
B|---------|---------------------------------|---------------------------------|---------------------------------|
G|---------|---------------------------------|---------------------------------|---------------------------------|
D|-3-------|-5-------------------------------|---------------------------------|-5-------------------------------|
A|-1-------|-3-----X----5----5----X----3-----|-X----3----3----X----3-----5-----|-3-----X----5----5----X----3-----|
E|---------|-------X----3----3----X----1-----|-X----1----1----X----1-----3-----|-------X----3----3----X----1-----|

E|---------------------------------|-----------------------------|-------------------------------------|
B|---------------------------------|-----------------------------|-------------------------------------|
G|---------------------------------|-----------------------------|-------------------------------------|
D|---------------------------------|-9-----9---------------7-----|-------------------------------------|
A|-X----3----3----X----3-----5-----|-7-----7-----5----7----------|-7---------7-------------------5-----|
E|-X----1----1----X----1-----3-----|-----------------------------|-5----5----5----8----8----5----------|

E|-----------------------------|-------------------------------------|-----------------------------|
B|-----------------------------|-------------------------------------|-----------------------------|
G|-----------------------------|-------------------------------------|-----------------------------|
D|-9-----9---------------7-----|-------------------------------------|-9-----9---------------7-----|
A|-7-----7-----5----7----------|-7---------7-------------------5-----|-7-----7-----5----7----------|
E|-----------------------------|-5----5----5----8----8----5----------|-----------------------------|

E|-------------------------------------|-----------------------------|-------------------------------------|
B|-------------------------------------|-----------------------------|-------------------------------------|
G|-------------------------------------|-----------------------------|-------------------------------------|
D|-------------------------------------|-9-----9---------------7-----|-------------------------------------|
A|-7---------7-------------------5-----|-7-----7-----5----7----------|-7---------7-------------------5-----|
E|-5----5----5----8----8----5----------|-----------------------------|-5----5----5----8----8----5----------|

E|---------------------------------|---------------------------------|---------------------------------|
B|---------------------------------|---------------------------------|---------------------------------|
G|---------------------------------|---------------------------------|---------------------------------|
D|-5-----5----5----5----5----5-----|---------------------------------|-5-----5----5----5----5----5-----|
A|-3-----3----3----3----3----3-----|-5-----5----3----3----3----3-----|-3-----3----3----3----3----3-----|
E|---------------------------------|-3-----3----1----1----1----1-----|---------------------------------|

E|---------------------------------|-----------------------------|-------------------------------------|
B|---------------------------------|-----------------------------|-------------------------------------|
G|---------------------------------|-----------------------------|-------------------------------------|
D|---------------------------------|-9-----9---------------7-----|-------------------------------------|
A|-5-----5----3----3----3----3-----|-7-----7-----5----7----------|-7---------7-------------------5-----|
E|-3-----3----1----1----1----1-----|-----------------------------|-5----5----5----8----8----5----------|

E|-----------------------------|-------------------------------------|-----------------------------|
B|-----------------------------|-------------------------------------|-----------------------------|
G|-----------------------------|-------------------------------------|-----------------------------|
D|-9-----9---------------7-----|-------------------------------------|-9-----9---------------7-----|
A|-7-----7-----5----7----------|-7---------7-------------------5-----|-7-----7-----5----7----------|
E|-----------------------------|-5----5----5----8----8----5----------|-----------------------------|

E|-------------------------------------|-----------------------------|-------------------------------------|
B|-------------------------------------|-----------------------------|-------------------------------------|
G|-------------------------------------|-----------------------------|-------------------------------------|
D|-------------------------------------|-9-----9---------------7-----|-------------------------------------|
A|-7---------7-------------------5-----|-7-----7-----5----7----------|-7---------7-------------------5-----|
E|-5----5----5----8----8----5----------|-----------------------------|-5----5----5----8----8----5----------|

E|---------------------------------|---------------------------------|---------------------------------|
B|---------------------------------|---------------------------------|---------------------------------|
G|---------------------------------|---------------------------------|---------------------------------|
D|-5-----5----5----5----5----5-----|---------------------------------|-5-----5----5----5----5----5-----|
A|-3-----3----3----3----3----3-----|-5-----5----3----3----3----3-----|-3-----3----3----3----3----3-----|
E|---------------------------------|-3-----3----1----1----1----1-----|---------------------------------|

E|-------------------------------------|-----------------------------|-------------------------------------|
B|-------------------------------------|-----------------------------|-------------------------------------|
G|-------------------------------------|-----------------------------|-------------------------------------|
D|-------------------------------------|-9-----9---------------7-----|-------------------------------------|
A|-5-----5-----5-----5-----5-----5-----|-7-----7-----5----7----------|-7---------7-------------------5-----|
E|-3-----3-----3-----3-----3-----3-----|-----------------------------|-5----5----5----8----8----5----------|

E|-----------------------------|---------------------------5----7----5----|-----------------------5----7----5----|
B|-----------------------------|------------------------------------------|-7----------7----7--------------------|
G|-----------------------------|------------------------------------------|-------%------------------------------|
D|-9-----9---------------7-----|------------------------------------------|-------%------------------------------|
A|-7-----7-----5----7----------|-7---------7------------------------------|--------------------------------------|
E|-----------------------------|-5----5----5----8----8--------------------|--------------------------------------|

E|-----------------------5----7----5----|---------------------------------|-----------------------5----7----5----|
B|-7----------7----7--------------------|-5-----X----5----5----X----5-----|-7----------7----7--------------------|
G|-------%------------------------------|---------------------------------|-------%------------------------------|
D|-------%------------------------------|---------------------------------|-------%------------------------------|
A|--------------------------------------|---------------------------------|--------------------------------------|
E|--------------------------------------|---------------------------------|--------------------------------------|

E|-----------------------5----7----5----|-----------------------5----7----5----|---------------------------------|
B|-7----------7----7--------------------|-7----------7----7--------------------|-5-----X----5----5----X----5-----|
G|-------%------------------------------|-------%------------------------------|---------------------------------|
D|-------%------------------------------|-------%------------------------------|---------------------------------|
A|--------------------------------------|--------------------------------------|---------------------------------|
E|--------------------------------------|--------------------------------------|---------------------------------|

E|---------------------------------|---------------------------------|---------------------------------|
B|-X----5----5----X----5-----5-----|-5-----X----5----5----X----5-----|-X----5----5----X----5-----5-----|
G|---------------------------------|---------------------------------|---------------------------------|
D|---------------------------------|---------------------------------|---------------------------------|
A|---------------------------------|---------------------------------|---------------------------------|
E|---------------------------------|---------------------------------|---------------------------------|

E|---------|---------|---------|---------|-------------------------------------|-------------------------------------|
B|-7-------|-7-------|-7-------|-7-------|-------------------------------------|-------------------------------------|
G|---------|---------|---------|---------|-9-----9----11---11---12---12---X----|-9-----9----11---11---12---12---X----|
D|---------|---------|---------|---------|-7-----7----9----9----10---10---X----|-7-----7----9----9----10---10---X----|
A|---------|---------|---------|---------|-------------------------------------|-------------------------------------|
E|---------|---------|---------|---------|-------------------------------------|-------------------------------------|

E|-------------------------------------|-------------------------------------|-------------------------------------|
B|-------------------------------------|-------------------------------------|-------------------------------------|
G|-9-----9----11---11---12---12---X----|-12----12---11---11---9----9----X----|-9-----9----11---11---12---12---X----|
D|-7-----7----9----9----10---10---X----|-10----10---9----9----7----7----X----|-7-----7----9----9----10---10---X----|
A|-------------------------------------|-------------------------------------|-------------------------------------|
E|-------------------------------------|-------------------------------------|-------------------------------------|

E|-------------------------------------|-------------------------------------|-------------------------------------|
B|-------------------------------------|-------------------------------------|-------------------------------------|
G|-9-----9----11---11---12---12---X----|-9-----9----11---11---12---12---X----|-12----12---11---11---9----9----X----|
D|-7-----7----9----9----10---10---X----|-7-----7----9----9----10---10---X----|-10----10---9----9----7----7----X----|
A|-------------------------------------|-------------------------------------|-------------------------------------|
E|-------------------------------------|-------------------------------------|-------------------------------------|

E|---------------------------------|-----------------------------|-----------------------------|
B|---------------------------------|-----------------------------|-----------------------------|
G|---------------------------------|-----------------------------|-------%---------------------|
D|-12----12---12---12---12---12----|-10----10---10---10----9-----|-7-----%----7----7-----------|
A|-10----10---10---10---10---10----|-8-----8----8----8-----7-----|-5----------5----5-----3-----|
E|---------------------------------|-----------------------------|-----------------------------|

E|-----------------------------|---------------------------------|-----------------------------|
B|-----------------------------|---------------------------------|-----------------------------|
G|-------%---------------------|---------------------------------|-----------------------------|
D|-7-----%----7----7-----------|-12----12---12---12---12---12----|-10----10---10---10----9-----|
A|-5----------5----5-----3-----|-10----10---10---10---10---10----|-8-----8----8----8-----7-----|
E|-----------------------------|---------------------------------|-----------------------------|

E|-----------------------------|-----------------------------|-----------------------------------------|
B|-----------------------------|-----------------------------|-----------------------------------------|
G|-------%---------------------|-------%---------------------|-----------------------------------------|
D|-7-----%----7----7-----------|-7-----%----7----7-----------|-5---------5---------5---------5---------|
A|-5----------5----5-----3-----|-5----------5----5-----3-----|-3----3----2----2----3----3----2----2----|
E|-----------------------------|-----------------------------|-----------------------------------------|

E|-------------------------|-------------------|-------------------|-------------------|
B|-------------------------|-------------------|-------------------|-------------------|
G|-------%-----------%-----|-------------------|-------------------|-------------------|
D|-------%-----------%-----|-4-------4----4----|-4-------X----5----|-5-------5----5----|
A|-5-----------3-----------|-2-------2----2----|-2-------X----3----|-3-------3----3----|
E|-3-----------1-----------|-------------------|-------------------|-------------------|

E|-------------------|-------------------|-------------------|-------------------|-------------------|
B|-------------------|-------------------|-------------------|-------------------|-------------------|
G|-------------------|-------------------|-------------------|-------------------|-------------------|
D|-5-------X----4----|-4-------4----4----|-4-------X----5----|-5-------5----5----|-5-------X----2----|
A|-3-------X----2----|-2-------2----2----|-2-------X----3----|-3-------3----3----|-3-------X----0----|
E|-------------------|-------------------|-------------------|-------------------|-------------------|

E|-------------------|-------------------|-------------------|-------------------|-------------------|
B|-------------------|-------------------|-------------------|-------------------|-------------------|
G|-------------------|-------------------|-------------------|-------------------|-------------------|
D|-2-------2----2----|-2-------X----3----|-3-------3----3----|-3-------X----2----|-2-------2----2----|
A|-0-------0----0----|-0-------X----1----|-1-------1----1----|-1-------X----0----|-0-------0----0----|
E|-------------------|-------------------|-------------------|-------------------|-------------------|

E|-------------------|-------------------|---------|---------------------------------|
B|-------------------|-------------------|---------|---------------------------------|
G|-------------------|-------------------|---------|---------------------------------|
D|-2-------X----3----|-3-------3----3----|-3-------|-5-------------------------------|
A|-0-------X----1----|-1-------1----1----|-1-------|-3-----X----5----5----X----3-----|
E|-------------------|-------------------|---------|-------X----3----3----X----1-----|

E|---------------------------------|---------------------------------|---------------------------------|
B|---------------------------------|---------------------------------|---------------------------------|
G|---------------------------------|---------------------------------|---------------------------------|
D|---------------------------------|-5-------------------------------|---------------------------------|
A|-X----3----3----X----3-----5-----|-3-----X----5----5----X----3-----|-X----3----3----X----3-----5-----|
E|-X----1----1----X----1-----3-----|-------X----3----3----X----1-----|-X----1----1----X----1-----3-----|

E|--------------------|---------|
B|--------------------|---------|
G|--------%-----%-----|-%-------|
D|--------%-----%-----|-%-------|
A|-7------------------|---------|
E|-5------------------|---------|
Iron Maiden - Invasion
Iron Maiden - Invasion.gp3