Iron Maiden - Juanita (2)

Iron Maiden



Title: Juanita
Album: Somewhere In Time B-Side
Artist: Iron Maiden
Author: 

Track 1: Dist. Guitar 1
E|-----------------------------------------|-----------------------------------------|
B|-----------------------------------------|-----------------------------------------|
G|-5----2--------------2--------------2----|-5----2--------------2--------------2----|
D|-----------------------------------------|-----------------------------------------|
A|-----------0----0---------0----0---------|-----------0----0---------0----0---------|
E|-----------------------------------------|-----------------------------------------|

E|-----------------------------------------|-------------------------------------|-----------------------------------------|
B|-----------------------------------------|-------------------------------------|-----------------------------------------|
G|-5----2--------------2--------------5----|------4---------2--------------------|-5----2--------------2--------------2----|
D|-----------------------------------------|---------------------5----4----2-----|-----------------------------------------|
A|-----------0----0---------0----0---------|-0---------0-------------------------|-----------0----0---------0----0---------|
E|-----------------------------------------|-------------------------------------|-----------------------------------------|

E|-----------------------------------------|-----------------------------------------|
B|-----------------------------------------|-----------------------------------------|
G|-5----2--------------2--------------2----|-5----2--------------2--------------5----|
D|-----------------------------------------|------------------------------------5----|
A|-----------0----0---------0----0---------|-----------0----0---------0----0---------|
E|-----------------------------------------|-----------------------------------------|

E|----------------------------|-----------------------------------------|-----------------------------------------|
B|----------------------------|-----------------------------------------|-----------------------------------------|
G|------4---------2----2------|-5----2--------------2--------------2----|-5----2--------------2--------------2----|
D|------4---------2----2------|-----------------------------------------|-----------------------------------------|
A|-X---------X----------------|-----------0----0---------0----0---------|-----------0----0---------0----0---------|
E|----------------------------|-----------------------------------------|-----------------------------------------|

E|-----------------------------------------|-10----8----10---10---8----8-----|-----------------------------------------|
B|-----------------------------------------|-10----8----10---10---8----8-----|-----------------------------------------|
G|-5----2--------------2--------------2----|---------------------------------|-5----2--------------2--------------2----|
D|-----------------------------------------|---------------------------------|-----------------------------------------|
A|-----------0----0---------0----0---------|---------------------------------|-----------0----0---------0----0---------|
E|-----------------------------------------|---------------------------------|-----------------------------------------|

E|-----------------------------------------|-----------------------------------------|
B|-----------------------------------------|-----------------------------------------|
G|-5----2--------------2--------------2----|-5----2--------------2--------------2----|
D|-----------------------------------------|-----------------------------------------|
A|-----------0----0---------0----0---------|-----------0----0---------0----0---------|
E|-----------------------------------------|-----------------------------------------|

E|-----------------------------------------|-----------------------------------------|
B|-----------------------------------------|-----------------------------------------|
G|-5----2--------------2-------------------|-5-------------------2--------------2----|
D|-----------------------------------------|-5-------------------2--------------2----|
A|-----------0----0---------0----0----0----|------0----0----0---------0----0---------|
E|-----------------------------------------|-----------------------------------------|

E|-----------------------------------------|-----------------------------------------|
B|-----------------------------------------|-----------------------------------------|
G|-----------2---------2-------------------|-7-------------------7--------------7----|
D|-----------2---------2-------------------|-7-------------------7--------------7----|
A|-0----0---------0---------0----3----4----|------5----5----5---------5----5---------|
E|-----------------------------------------|-----------------------------------------|

E|-----------------------------------------|-----------------------------------------|
B|-----------------------------------------|-----------------------------------------|
G|------7--------------7-------------------|-5-------------------2--------------2----|
D|------7--------------7-------------------|-5-------------------2--------------2----|
A|-5---------5----5---------5----6----7----|------0----0----0---------0----0---------|
E|-----------------------------------------|-----------------------------------------|

E|-----------------------------------------|-----------------------------------------|
B|-----------------------------------------|-----------------------------------------|
G|-----------2---------2-------------------|-7-------------------7--------------7----|
D|-----------2---------2-------------------|-7-------------------7--------------7----|
A|-0----0---------0---------0----3----4----|------5----5----5---------5----5---------|
E|-----------------------------------------|-----------------------------------------|

E|-----------------------------------------|-------------------------------------|-----------------------------------------|
B|-----------------------------------------|-------------------------------------|-----------------------------------------|
G|------7---------7----%----7----7----6----|-5-----------------------------------|-----------------------------------------|
D|------7---------7----%----7----7----6----|-5-----------------------------------|-----------------------------------------|
A|-5---------5----5---------5----5----4----|-3-----3----3----3----3----3----3----|-3----3----3----3----3----3----3----3----|
E|-----------------------------------------|-------------------------------------|-----------------------------------------|

E|-------------------------------------|-----------------------------------------|-------------------------------------|
B|-------------------------------------|-----------------------------------------|-------------------------------------|
G|-7-----------------------------------|----------------7----%----7----7----6----|-5-----------------------------------|
D|-7-----------------------------------|----------------7----%----7----7----6----|-5-----------------------------------|
A|-5-----5----5----5----5----5----5----|-5----5----5----5---------5----5----4----|-3-----3----3----3----3----3----3----|
E|-------------------------------------|-----------------------------------------|-------------------------------------|

E|-----------------------------------------|-----------------------------------------|
B|-----------------------------------------|-----------------------------------------|
G|-----------------------------------------|-%----4----4----%----4----4----%----4----|
D|-----------------------------------------|-%----4----4----%----4----4----%----4----|
A|-3----3----3----3----3----3----3----3----|------2----2---------2----2---------2----|
E|-----------------------------------------|-----------------------------------------|

E|---------------|-------------------------------------|---------------------------------|
B|---------------|-------------------------------------|---------------------------------|
G|-4------%------|-7-----9--------------9--------------|-9-------------------------------|
D|-4------%------|-7-----9--------------9--------------|-9-------------------5-----7-----|
A|-2-------------|-5-----7--------------7--------------|-7-------------------5-----7-----|
E|---------------|------------0----0---------0----0----|------0----0----0----3-----5-----|

E|-------------------------------------|---------------------------------|-----------------------------------------|
B|-------------------------------------|---------------------------------|-----------------------------------------|
G|-7-----9--------------9--------------|-9-------------------------------|-5---------------------------------------|
D|-7-----9--------------9--------------|-9-------------------5-----7-----|-5---------------------------------------|
A|-5-----7--------------7--------------|-7-------------------5-----7-----|-3----3----3----3----3----3----3----3----|
E|------------0----0---------0----0----|------0----0----0----3-----5-----|-----------------------------------------|

E|-----------------------------------------|-------------------------------------|-----------------------------------------|
B|-----------------------------------------|-------------------------------------|-----------------------------------------|
G|-7---------------------------------------|-7-----9--------------9--------------|----------------%------------------------|
D|-7---------------------------------------|-7-----9--------------9--------------|-----------5----%------------------------|
A|-5----5----5----5----5----5----5----5----|-5-----7--------------7--------------|-----------5-----------------------------|
E|-----------------------------------------|------------0----0---------0----0----|-0----0----3---------0----5----5----3----|

E|-----------------------------------------|-----------------------------------------|
B|-----------------------------------------|-----------------------------------------|
G|-5----2--------------2--------------2----|-5----2--------------2--------------2----|
D|-----------------------------------------|-----------------------------------------|
A|-----------0----0---------0----0---------|-----------0----0---------0----0---------|
E|-----------------------------------------|-----------------------------------------|

E|-----------------------------------------|-10---10---8----10---10---8----8-----|-----------------------------------------|
B|-----------------------------------------|-10---10---8----10---10---8----8-----|-----------------------------------------|
G|-5----2--------------2-------------------|-------------------------------------|-5-------------------2--------------2----|
D|-----------------------------------------|-------------------------------------|-5-------------------2--------------2----|
A|-----------0----0---------0----0----0----|-------------------------------------|------0----0----0---------0----0---------|
E|-----------------------------------------|-------------------------------------|-----------------------------------------|

E|-----------------------------------------|-----------------------------------------|
B|-----------------------------------------|-----------------------------------------|
G|-----------2---------2-------------------|-7-------------------7--------------7----|
D|-----------2---------2-------------------|-7-------------------7--------------7----|
A|-0----0---------0---------0----3----4----|------5----5----5---------5----5---------|
E|-----------------------------------------|-----------------------------------------|

E|-----------------------------------------|-----------------------------------------|
B|-----------------------------------------|-----------------------------------------|
G|------7--------------7-------------------|-5-------------------2--------------2----|
D|------7--------------7-------------------|-5-------------------2--------------2----|
A|-5---------5----5---------5----6----7----|------0----0----0---------0----0---------|
E|-----------------------------------------|-----------------------------------------|

E|-----------------------------------------|-----------------------------------------|
B|-----------------------------------------|-----------------------------------------|
G|-----------2---------2-------------------|-7-------------------7--------------7----|
D|-----------2---------2-------------------|-7-------------------7--------------7----|
A|-0----0---------0---------0----3----4----|------5----5----5---------5----5---------|
E|-----------------------------------------|-----------------------------------------|

E|-----------------------------------------|-------------------------------------|-----------------------------------------|
B|-----------------------------------------|-------------------------------------|-----------------------------------------|
G|------7---------7----%----7----7----6----|-5-----------------------------------|-----------------------------------------|
D|------7---------7----%----7----7----6----|-5-----------------------------------|-----------------------------------------|
A|-5---------5----5---------5----5----4----|-3-----3----3----3----3----3----3----|-3----3----3----3----3----3----3----3----|
E|-----------------------------------------|-------------------------------------|-----------------------------------------|

E|-------------------------------------|-----------------------------------------|-------------------------------------|
B|-------------------------------------|-----------------------------------------|-------------------------------------|
G|-7-----------------------------------|----------------7----%----7----7----6----|-5-----------------------------------|
D|-7-----------------------------------|----------------7----%----7----7----6----|-5-----------------------------------|
A|-5-----5----5----5----5----5----5----|-5----5----5----5---------5----5----4----|-3-----3----3----3----3----3----3----|
E|-------------------------------------|-----------------------------------------|-------------------------------------|

E|-----------------------------------------|-----------------------------------------|
B|-----------------------------------------|-----------------------------------------|
G|-----------------------------------------|-%----4----4----%----4----4----%----4----|
D|-----------------------------------------|-%----4----4----%----4----4----%----4----|
A|-3----3----3----3----3----3----3----3----|------2----2---------2----2---------2----|
E|-----------------------------------------|-----------------------------------------|

E|---------------|-------------------------------------|---------------------------------|
B|---------------|-------------------------------------|---------------------------------|
G|-4------%------|-7-----9--------------9--------------|-9-------------------------------|
D|-4------%------|-7-----9--------------9--------------|-9-------------------5-----7-----|
A|-2-------------|-5-----7--------------7--------------|-7-------------------5-----7-----|
E|---------------|------------0----0---------0----0----|------0----0----0----3-----5-----|

E|-------------------------------------|---------------------------------|-----------------------------------------|
B|-------------------------------------|---------------------------------|-----------------------------------------|
G|-7-----9--------------9--------------|-9-------------------------------|-5---------------------------------------|
D|-7-----9--------------9--------------|-9-------------------5-----7-----|-5---------------------------------------|
A|-5-----7--------------7--------------|-7-------------------5-----7-----|-3----3----3----3----3----3----3----3----|
E|------------0----0---------0----0----|------0----0----0----3-----5-----|-----------------------------------------|

E|-----------------------------------------|-------------------------------------|-----------------------------------------|
B|-----------------------------------------|-------------------------------------|-----------------------------------------|
G|-7---------------------------------------|-7-----9--------------9--------------|----------------%------------------------|
D|-7---------------------------------------|-7-----9--------------9--------------|-----------5----%------------------------|
A|-5----5----5----5----5----5----5----5----|-5-----7--------------7--------------|-----------5-----------------------------|
E|-----------------------------------------|------------0----0---------0----0----|-0----0----3---------0----5----5----3----|

E|-------------------------------------|---------------------------------|-------------------------------------|
B|-------------------------------------|---------------------------------|-------------------------------------|
G|-7-----9--------------9--------------|-9-------------------------------|-7-----9--------------9--------------|
D|-7-----9--------------9--------------|-9-------------------5-----7-----|-7-----9--------------9--------------|
A|-5-----7--------------7--------------|-7-------------------5-----7-----|-5-----7--------------7--------------|
E|------------0----0---------0----0----|------0----0----0----3-----5-----|------------0----0---------0----0----|

E|---------------------------------|-----------------------------------------|-----------------------------------------|
B|---------------------------------|-----------------------------------------|-----------------------------------------|
G|-9-------------------------------|-5---------------------------------------|-7---------------------------------------|
D|-9-------------------5-----7-----|-5---------------------------------------|-7---------------------------------------|
A|-7-------------------5-----7-----|-3----3----3----3----3----3----3----3----|-5----5----5----5----5----5----5----5----|
E|------0----0----0----3-----5-----|-----------------------------------------|-----------------------------------------|

E|---------------------------------|------------------------|---------------------------------|
B|---------------------------------|------------------------|---------------------------------|
G|-9----------7----7---------------|-5----------4----4------|-9----------7----7---------------|
D|-9----------7----7---------------|-5----------4----4------|-9----------7----7---------------|
A|-7-----X----5----5-----0----2----|-3-----X----2----2------|-7-----X----5----5-----0----2----|
E|---------------------------------|------------------------|---------------------------------|

E|------------------------|---------------------------------|------------------------|
B|------------------------|---------------------------------|------------------------|
G|-5----------4----4------|-9----------7----7---------------|-5----------4----4------|
D|-5----------4----4------|-9----------7----7---------------|-5----------4----4------|
A|-3-----X----2----2------|-7-----X----5----5-----0----2----|-3-----X----2----2------|
E|------------------------|---------------------------------|------------------------|

E|-----------------------------------------|-----------------------------|-------------------------------------|
B|-----------------------------------------|-----------------------------|-------------------------------------|
G|-----------------------------------------|-----------7-----7-----------|-------------------------------------|
D|-----------------------------------------|-----------------------------|------5------------------------------|
A|-3----3----3----3----3----3----3----3----|-5----5----5-----5------5----|-7---------7----5----7-----7----5----|
E|-----------------------------------------|-----------------------------|-------------------------------------|

E|----------------------------|-------------------------------------|----------------------------|
B|----------------------------|-------------------------------------|----------------------------|
G|------------------%---------|-------------------------------------|----------------------------|
D|------5----5------%---------|------5-------------------------7----|-7----5----7----7----5------|
A|-7---------------------5----|-7---------7----5----7-----5---------|----------------------------|
E|----------------------------|-------------------------------------|----------------------------|

E|-------------------|------------------|-------------------------------------|-------------------|
B|-------------------|------------------|-------------------------------------|-------------------|
G|-5----4----2-------|-5----4----2------|-------------------------------------|-------------------|
D|-5----4----2-------|-5----4----2------|-----------5-------------------------|-----------5-------|
A|-3----2----0-------|-3----2----0------|-5----7---------7----5----7----7-----|-5----7------------|
E|-------------------|------------------|-------------------------------------|-------------------|

E|-----------------------------------------|---------------------------------|-------------------|
B|-----------------------------------------|---------------------------------|-------------------|
G|-----------------------------------------|---------------------------------|-5----4----2-------|
D|-----------5-----------------------------|-7-----5----7----7----5----5-----|-5----4----2-------|
A|-5----7---------7----5----7----7----5----|---------------------------------|-3----2----0-------|
E|-----------------------------------------|---------------------------------|-------------------|

E|------------------|-------------------------------------|-------------------|-----------------------------------------|
B|------------------|-------------------------------------|-------------------|-----------------------------------------|
G|-5----4----2------|-------------------------------------|-------------------|-----------------------------------------|
D|-5----4----2------|-----------5-------------------------|-----------5-------|-----------5-----------------------------|
A|-3----2----0------|-5----7---------7----5----7----7-----|-5----7------------|-5----7---------7----5----7----7----5----|
E|------------------|-------------------------------------|-------------------|-----------------------------------------|

E|---------------------------------|-------------------|------------------|-------------------------------------|
B|---------------------------------|-------------------|------------------|-------------------------------------|
G|---------------------------------|-5----4----2-------|-5----4----2------|-------------------------------------|
D|-7-----5----7----7----5----5-----|-5----4----2-------|-5----4----2------|-----------5-------------------------|
A|---------------------------------|-3----2----0-------|-3----2----0------|-5----7---------7----5----7----7-----|
E|---------------------------------|-------------------|------------------|-------------------------------------|

E|-------------------|-----------------------------------------|---------------------------------|
B|-------------------|-----------------------------------------|---------------------------------|
G|-------------------|-----------------------------------------|---------------------------------|
D|-----------5-------|-----------5-----------------------------|-7-----5----7----7----5----5-----|
A|-5----7------------|-5----7---------7----5----7----7----5----|---------------------------------|
E|-------------------|-----------------------------------------|---------------------------------|

E|-------------------|------------------|---------|-----------------------------------------|
B|-------------------|------------------|---------|-----------------------------------------|
G|-5----4----2-------|-5----4-----------|---------|-5----2--------------2--------------2----|
D|-5----4----2-------|-5----4----5------|-5-------|-----------------------------------------|
A|-3----2----0-------|-3----2----5------|-5-------|-----------0----0---------0----0---------|
E|-------------------|-----------3------|-3-------|-----------------------------------------|

E|-----------------------------------------|-----------------------------------------|
B|-----------------------------------------|-----------------------------------------|
G|-5----2--------------2--------------2----|-5----2--------------2--------------2----|
D|-----------------------------------------|-----------------------------------------|
A|-----------0----0---------0----0---------|-----------0----0---------0----0---------|
E|-----------------------------------------|-----------------------------------------|

E|-10---10---8----10---10---8----8-----|-----------------------------------------|-----------------------------------------|
B|-10---10---8----10---10---8----8-----|-----------------------------------------|-----------------------------------------|
G|-------------------------------------|-5-------------------2--------------2----|-----------2---------2-------------------|
D|-------------------------------------|-5-------------------2--------------2----|-----------2---------2-------------------|
A|-------------------------------------|------0----0----0---------0----0---------|-0----0---------0---------0----3----4----|
E|-------------------------------------|-----------------------------------------|-----------------------------------------|

E|-----------------------------------------|-----------------------------------------|
B|-----------------------------------------|-----------------------------------------|
G|-7-------------------7--------------7----|------7--------------7-------------------|
D|-7-------------------7--------------7----|------7--------------7-------------------|
A|------5----5----5---------5----5---------|-5---------5----5---------5----6----7----|
E|-----------------------------------------|-----------------------------------------|

E|-----------------------------------------|-----------------------------------------|
B|-----------------------------------------|-----------------------------------------|
G|-5-------------------2--------------2----|-----------2---------2-------------------|
D|-5-------------------2--------------2----|-----------2---------2-------------------|
A|------0----0----0---------0----0---------|-0----0---------0---------0----3----4----|
E|-----------------------------------------|-----------------------------------------|

E|-----------------------------------------|-----------------------------------------|
B|-----------------------------------------|-----------------------------------------|
G|-7-------------------7--------------7----|------7---------7----%----7----7----6----|
D|-7-------------------7--------------7----|------7---------7----%----7----7----6----|
A|------5----5----5---------5----5---------|-5---------5----5---------5----5----4----|
E|-----------------------------------------|-----------------------------------------|

E|-------------------------------------|-----------------------------------------|-------------------------------------|
B|-------------------------------------|-----------------------------------------|-------------------------------------|
G|-5-----------------------------------|-----------------------------------------|-7-----------------------------------|
D|-5-----------------------------------|-----------------------------------------|-7-----------------------------------|
A|-3-----3----3----3----3----3----3----|-3----3----3----3----3----3----3----3----|-5-----5----5----5----5----5----5----|
E|-------------------------------------|-----------------------------------------|-------------------------------------|

E|-----------------------------------------|-------------------------------------|-----------------------------------------|
B|-----------------------------------------|-------------------------------------|-----------------------------------------|
G|----------------7----%----7----7----6----|-5-----------------------------------|-----------------------------------------|
D|----------------7----%----7----7----6----|-5-----------------------------------|-----------------------------------------|
A|-5----5----5----5---------5----5----4----|-3-----3----3----3----3----3----3----|-3----3----3----3----3----3----3----3----|
E|-----------------------------------------|-------------------------------------|-----------------------------------------|

E|-----------------------------------------|---------------|-------------------------------------|
B|-----------------------------------------|---------------|-------------------------------------|
G|-%----4----4----%----4----4----%----4----|-4------%------|-7-----9--------------9--------------|
D|-%----4----4----%----4----4----%----4----|-4------%------|-7-----9--------------9--------------|
A|------2----2---------2----2---------2----|-2-------------|-5-----7--------------7--------------|
E|-----------------------------------------|---------------|------------0----0---------0----0----|

E|---------------------------------|-------------------------------------|---------------------------------|
B|---------------------------------|-------------------------------------|---------------------------------|
G|-9-------------------------------|-7-----9--------------9--------------|-9-------------------------------|
D|-9-------------------5-----7-----|-7-----9--------------9--------------|-9-------------------5-----7-----|
A|-7-------------------5-----7-----|-5-----7--------------7--------------|-7-------------------5-----7-----|
E|------0----0----0----3-----5-----|------------0----0---------0----0----|------0----0----0----3-----5-----|

E|-----------------------------------------|-----------------------------------------|
B|-----------------------------------------|-----------------------------------------|
G|-5---------------------------------------|-7---------------------------------------|
D|-5---------------------------------------|-7---------------------------------------|
A|-3----3----3----3----3----3----3----3----|-5----5----5----5----5----5----5----5----|
E|-----------------------------------------|-----------------------------------------|

E|-------------------------------------|-----------------------------------------|-------------------------------------|
B|-------------------------------------|-----------------------------------------|-------------------------------------|
G|-7-----9--------------9--------------|----------------%------------------------|-7-----9--------------9--------------|
D|-7-----9--------------9--------------|-----------5----%------------------------|-7-----9--------------9--------------|
A|-5-----7--------------7--------------|-----------5-----------------------------|-5-----7--------------7--------------|
E|------------0----0---------0----0----|-0----0----3---------0----5----5----3----|------------0----0---------0----0----|

E|---------------------------------|-------------------------------------|---------------------------------|
B|---------------------------------|-------------------------------------|---------------------------------|
G|-9-------------------------------|-7-----9--------------9--------------|-9-------------------------------|
D|-9-------------------5-----7-----|-7-----9--------------9--------------|-9-------------------5-----7-----|
A|-7-------------------5-----7-----|-5-----7--------------7--------------|-7-------------------5-----7-----|
E|------0----0----0----3-----5-----|------------0----0---------0----0----|------0----0----0----3-----5-----|

E|-----------------------------------------|-----------------------------------------|
B|-----------------------------------------|-----------------------------------------|
G|-5---------------------------------------|-7---------------------------------------|
D|-5---------------------------------------|-7---------------------------------------|
A|-3----3----3----3----3----3----3----3----|-5----5----5----5----5----5----5----5----|
E|-----------------------------------------|-----------------------------------------|

E|---------------------------------|------------------------|---------------------------------|
B|---------------------------------|------------------------|---------------------------------|
G|-9----------7----7---------------|-5----------4----4------|-9----------7----7---------------|
D|-9----------7----7---------------|-5----------4----4------|-9----------7----7---------------|
A|-7-----X----5----5-----0----2----|-3-----X----2----2------|-7-----X----5----5-----0----2----|
E|---------------------------------|------------------------|---------------------------------|

E|------------------------|---------------------------------|------------------------|
B|------------------------|---------------------------------|------------------------|
G|-5----------4----4------|-9----------7----7---------------|-5----------4----4------|
D|-5----------4----4------|-9----------7----7---------------|-5----------4----4------|
A|-3-----X----2----2------|-7-----X----5----5-----0----2----|-3-----X----2----2------|
E|------------------------|---------------------------------|------------------------|

E|-----------------------------------------|-----------------------------------------|
B|-----------------------------------------|-----------------------------------------|
G|-----------------------------------------|-----------------------------------------|
D|-----------------------------------------|-----------------------------------------|
A|-3----3----3----3----3----3----3----3----|-5----5----5----5----5----5----5----5----|
E|-----------------------------------------|-----------------------------------------|

E|---------------------------------|------------------------|---------------------------------|
B|---------------------------------|------------------------|---------------------------------|
G|-9----------7----7---------------|-5----------4----4------|-9----------7----7---------------|
D|-9----------7----7---------------|-5----------4----4------|-9----------7----7---------------|
A|-7-----X----5----5-----0----2----|-3-----X----2----2------|-7-----X----5----5-----0----2----|
E|---------------------------------|------------------------|---------------------------------|

E|------------------------|---------------------------------|------------------------|
B|------------------------|---------------------------------|------------------------|
G|-5----------4----4------|-9----------7----7---------------|-5----------4----4------|
D|-5----------4----4------|-9----------7----7---------------|-5----------4----4------|
A|-3-----X----2----2------|-7-----X----5----5-----0----2----|-3-----X----2----2------|
E|------------------------|---------------------------------|------------------------|

E|-----------------------------------------|-----------------------------------------|
B|-----------------------------------------|-----------------------------------------|
G|-----------------------------------------|-----------------------------------------|
D|-----------------------------------------|-----------------------------------------|
A|-3----3----3----3----3----3----3----3----|-5----5----5----5----5----5----5----5----|
E|-----------------------------------------|-----------------------------------------|

E|-----------------------------------------|-----------------------------------------|
B|-----------------------------------------|-----------------------------------------|
G|-5----2--------------2--------------2----|-5----2--------------2--------------2----|
D|-----------------------------------------|-----------------------------------------|
A|-----------0----0---------0----0---------|-----------0----0---------0----0---------|
E|-----------------------------------------|-----------------------------------------|

E|-----------------------------------------|-----------------------------------------|
B|-----------------------------------------|-----------------------------------------|
G|-5----2--------------2--------------2----|-5----2--------------%---------%---------|
D|-----------------------------------------|---------------------%---------%---------|
A|-----------0----0---------0----0---------|-----------0----3---------2--------------|
E|-----------------------------------------|------------------------------------3----|

E|-----------------------------|---------------------------------|
B|-----------------------------|---------------------------------|
G|-----------------------------|---------------------------%-----|
D|-5-----5-----5-----5---------|---------------------7-----%-----|
A|-5-----5-----5-----5----3----|-2----2--------------7-----------|
E|-3-----3-----3-----3---------|-----------3----3----5-----------|
Iron Maiden - Juanita (2)
Iron Maiden - Juanita (2).gp3