Iron Maiden - Judas Be My Guide (3)

Iron Maiden



Title: Judas be my guide
Album: Fear of the dark
Artist: IRON MAIDEN
Author: Bruce dickinson & Dave murray

Track 1: guit 1 solo
E|---------|---------|-------------------|---------|---------|---------|-------------------|
B|---------|---------|-------------------|---------|---------|---------|-------------------|
G|-%-------|-%-------|-%------%-----%----|-%-------|-%-------|-%-------|-%------%-----%----|
D|-%-------|-%-------|-%------%-----%----|-%-------|-%-------|-%-------|-%------%-----%----|
A|---------|---------|-------------------|---------|---------|---------|-------------------|
E|---------|---------|-------------------|---------|---------|---------|-------------------|

E|---------|----------------------------------|-------------------------------------|
B|---------|----------------------------------|-13---13---13---13---13----13---13---|
G|-%-------|-%------%--------------------10---|-------------------------------------|
D|-%-------|-%------%------------10--12-------|-------------------------------------|
A|---------|-------------10--12---------------|-------------------------------------|
E|---------|----------------------------------|-------------------------------------|

E|----------------------------------------13---|-15-----15---15---15---15--13--|-15-----15---15---15---13---|
B|-10--13--10-------------------13---15--------|-------------------------------|----------------------------|
G|--------------12---12---12-------------------|-------------------------------|----------------------------|
D|---------------------------------------------|-------------------------------|----------------------------|
A|---------------------------------------------|-------------------------------|----------------------------|
E|---------------------------------------------|-------------------------------|----------------------------|

E|-15----13--13----13----13---13--13--|-13---13---10-------10--13--10-------10-------------|
B|------------------------------------|----------------13--------------13--------13---10---|
G|------------------------------------|----------------------------------------------------|
D|------------------------------------|----------------------------------------------------|
A|------------------------------------|----------------------------------------------------|
E|------------------------------------|----------------------------------------------------|

E|-----------------------------------13---15----15--|-15------15---13---|---------|
B|---------------------------13--15-----------------|-------------------|-15------|
G|-12--12--10------10--12---------------------------|-------------------|---------|
D|-------------12-----------------------------------|-------------------|---------|
A|--------------------------------------------------|-------------------|---------|
E|--------------------------------------------------|-------------------|---------|

E|------------------------|---------|---------|---------|---------|---------|---------|
B|-15---------------------|---------|---------|---------|---------|---------|---------|
G|------%----%-----%------|-%-------|-%-------|-%-------|-%-------|-%-------|-%-------|
D|------%----%-----%------|-%-------|-%-------|-%-------|-%-------|-%-------|-%-------|
A|------------------------|---------|---------|---------|---------|---------|---------|
E|------------------------|---------|---------|---------|---------|---------|---------|

E|---------|---------|---------|---------|---------|---------|---------|---------|---------|
B|---------|---------|---------|---------|---------|---------|---------|---------|---------|
G|-%-------|-%-------|-%-------|-%-------|-%-------|-%-------|-%-------|-%-------|-%-------|
D|-%-------|-%-------|-%-------|-%-------|-%-------|-%-------|-%-------|-%-------|-%-------|
A|---------|---------|---------|---------|---------|---------|---------|---------|---------|
E|---------|---------|---------|---------|---------|---------|---------|---------|---------|

E|---------|---------|---------|---------|---------|---------|---------|---------|---------|
B|---------|---------|---------|---------|---------|---------|---------|---------|---------|
G|-%-------|-%-------|-%-------|-%-------|-%-------|-%-------|-%-------|-%-------|-%-------|
D|-%-------|-%-------|-%-------|-%-------|-%-------|-%-------|-%-------|-%-------|-%-------|
A|---------|---------|---------|---------|---------|---------|---------|---------|---------|
E|---------|---------|---------|---------|---------|---------|---------|---------|---------|

E|---------|---------|---------|---------|---------|---------|---------|---------|---------|
B|---------|---------|---------|---------|---------|---------|---------|---------|---------|
G|-%-------|-%-------|-%-------|-%-------|-%-------|-%-------|-%-------|-%-------|-%-------|
D|-%-------|-%-------|-%-------|-%-------|-%-------|-%-------|-%-------|-%-------|-%-------|
A|---------|---------|---------|---------|---------|---------|---------|---------|---------|
E|---------|---------|---------|---------|---------|---------|---------|---------|---------|

E|---------|---------|---------|---------|---------|---------|---------|---------|---------|
B|---------|---------|---------|---------|---------|---------|---------|---------|---------|
G|-%-------|-%-------|-%-------|-%-------|-%-------|-%-------|-%-------|-%-------|-%-------|
D|-%-------|-%-------|-%-------|-%-------|-%-------|-%-------|-%-------|-%-------|-%-------|
A|---------|---------|---------|---------|---------|---------|---------|---------|---------|
E|---------|---------|---------|---------|---------|---------|---------|---------|---------|

E|---------|---------|---------|---------|---------|---------|---------|---------|---------|
B|---------|---------|---------|---------|---------|---------|---------|---------|---------|
G|-%-------|-%-------|-%-------|-%-------|-%-------|-%-------|-%-------|-%-------|-%-------|
D|-%-------|-%-------|-%-------|-%-------|-%-------|-%-------|-%-------|-%-------|-%-------|
A|---------|---------|---------|---------|---------|---------|---------|---------|---------|
E|---------|---------|---------|---------|---------|---------|---------|---------|---------|

E|---------|---------|---------|--------------5-----------------------------|--------------5-----------------------------|
B|---------|---------|---------|------6---8--------6----8----5---------6----|-6----6---8--------6----8----5--------------|
G|-%-------|-%-------|-%-------|-%--------------------------------5---------|----------------------------------5----7----|
D|-%-------|-%-------|-%-------|-%------------------------------------------|--------------------------------------------|
A|---------|---------|---------|--------------------------------------------|--------------------------------------------|
E|---------|---------|---------|--------------------------------------------|--------------------------------------------|

E|--------------5-----------------------------|--------------5-----------------------------|
B|------6---8--------6----8----5--------------|------6---8--------6----8----5---------6----|
G|-7--------------------------------5----7----|-7--------------------------------5---------|
D|--------------------------------------------|--------------------------------------------|
A|--------------------------------------------|--------------------------------------------|
E|--------------------------------------------|--------------------------------------------|

E|--------------5-----------------------------|--------------5-----------------------------|
B|-6----6---8--------6----8----5---------6----|-6----6---8--------6----8----5--------------|
G|----------------------------------5---------|----------------------------------5----7----|
D|--------------------------------------------|--------------------------------------------|
A|--------------------------------------------|--------------------------------------------|
E|--------------------------------------------|--------------------------------------------|

E|--------------5-----------------------------|--------------5-----------------------------|
B|------6---8--------6----8----5--------------|------6---8--------6----8----5--------------|
G|-7--------------------------------5----7----|-7--------------------------------5----%----|
D|--------------------------------------------|---------------------------------------%----|
A|--------------------------------------------|--------------------------------------------|
E|--------------------------------------------|--------------------------------------------|

E|---------|---------|---------|---------|---------|---------|---------|---------|---------|
B|---------|---------|---------|---------|---------|---------|---------|---------|---------|
G|-%-------|-%-------|-%-------|-%-------|-%-------|-%-------|-%-------|-%-------|-%-------|
D|-%-------|-%-------|-%-------|-%-------|-%-------|-%-------|-%-------|-%-------|-%-------|
A|---------|---------|---------|---------|---------|---------|---------|---------|---------|
E|---------|---------|---------|---------|---------|---------|---------|---------|---------|

E|---------|---------|---------|---------|---------|---------|---------|---------|---------|
B|---------|---------|---------|---------|---------|---------|---------|---------|---------|
G|-%-------|-%-------|-%-------|-%-------|-%-------|-%-------|-%-------|-%-------|-%-------|
D|-%-------|-%-------|-%-------|-%-------|-%-------|-%-------|-%-------|-%-------|-%-------|
A|---------|---------|---------|---------|---------|---------|---------|---------|---------|
E|---------|---------|---------|---------|---------|---------|---------|---------|---------|

E|---------|---------|---------|---------|---------|---------|---------|---------|---------|
B|---------|---------|---------|---------|---------|---------|---------|---------|---------|
G|-%-------|-%-------|-%-------|-%-------|-%-------|-%-------|-%-------|-%-------|-%-------|
D|-%-------|-%-------|-%-------|-%-------|-%-------|-%-------|-%-------|-%-------|-%-------|
A|---------|---------|---------|---------|---------|---------|---------|---------|---------|
E|---------|---------|---------|---------|---------|---------|---------|---------|---------|

E|---------|---------|---------|---------|---------|---------|---------|---------|---------|
B|---------|---------|---------|---------|---------|---------|---------|---------|---------|
G|-%-------|-%-------|-%-------|-%-------|-%-------|-%-------|-%-------|-%-------|-%-------|
D|-%-------|-%-------|-%-------|-%-------|-%-------|-%-------|-%-------|-%-------|-%-------|
A|---------|---------|---------|---------|---------|---------|---------|---------|---------|
E|---------|---------|---------|---------|---------|---------|---------|---------|---------|

E|---------|---------|---------|---------|---------|---------|---------|
B|---------|---------|---------|---------|---------|---------|---------|
G|-%-------|-%-------|-%-------|-%-------|-%-------|-%-------|-%-------|
D|-%-------|-%-------|-%-------|-%-------|-%-------|-%-------|-%-------|
A|---------|---------|---------|---------|---------|---------|---------|
E|---------|---------|---------|---------|---------|---------|---------|
Iron Maiden - Judas Be My Guide (3)
Iron Maiden - Judas Be My Guide (3).gp3