Iron Maiden - Judas Be My Guide (4)

Iron Maiden - Judas Be My Guide (4)

Iron Maiden



Title: Judas be my guide
Album: Fear of the dark
Artist: Iron Maiden
Author: Bruce Dickinson, Dave Murray

Track 1: Janick Solo
E|---------|---------|---------------|---------|---------|---------|---------------|
B|---------|---------|---------------|---------|---------|---------|---------------|
G|-%-------|-%-------|-%------%------|-%-------|-%-------|-%-------|-%------%------|
D|-%-------|-%-------|-%------%------|-%-------|-%-------|-%-------|-%------%------|
A|---------|---------|---------------|---------|---------|---------|---------------|
E|---------|---------|---------------|---------|---------|---------|---------------|

E|---------|----------------------------------|-----------------------------|-------------------------------13---|
B|---------|----------------------------------|-15---15---15---15-----15----|-10--13--10----------13---15--------|
G|-%-------|-%------%--------------------10---|-----------------------------|--------------12--------------------|
D|-%-------|-%------%------------10--12-------|-----------------------------|------------------------------------|
A|---------|-------------10--12---------------|-----------------------------|------------------------------------|
E|---------|----------------------------------|-----------------------------|------------------------------------|

E|-15-----15---15----15--13--|-15-----15---15---15---13---|-15----13--13----13----13---13---|
B|---------------------------|----------------------------|---------------------------------|
G|---------------------------|----------------------------|---------------------------------|
D|---------------------------|----------------------------|---------------------------------|
A|---------------------------|----------------------------|---------------------------------|
E|---------------------------|----------------------------|---------------------------------|

E|-13---13---10-------10--13--10-------10-------------|-----------------------------------13---15----|
B|----------------15--------------15--------13---10---|---------------------------13--15-------------|
G|----------------------------------------------------|-14--14--10------10--12-----------------------|
D|----------------------------------------------------|-------------12-------------------------------|
A|----------------------------------------------------|----------------------------------------------|
E|----------------------------------------------------|----------------------------------------------|

E|-15------15---13---|---------|-----------------------------|---------|---------|---------|
B|-------------------|-15------|-15--15-10-------------------|---------|---------|---------|
G|-------------------|---------|-----------%----%-----%------|-%-------|-%-------|-%-------|
D|-------------------|---------|-----------%----%-----%------|-%-------|-%-------|-%-------|
A|-------------------|---------|-----------------------------|---------|---------|---------|
E|-------------------|---------|-----------------------------|---------|---------|---------|

E|---------|---------|---------|---------|---------|---------|---------|---------|---------|
B|---------|---------|---------|---------|---------|---------|---------|---------|---------|
G|-%-------|-%-------|-%-------|-%-------|-%-------|-%-------|-%-------|-%-------|-%-------|
D|-%-------|-%-------|-%-------|-%-------|-%-------|-%-------|-%-------|-%-------|-%-------|
A|---------|---------|---------|---------|---------|---------|---------|---------|---------|
E|---------|---------|---------|---------|---------|---------|---------|---------|---------|

E|---------|---------|---------|---------|---------|---------|---------|---------|---------|
B|---------|---------|---------|---------|---------|---------|---------|---------|---------|
G|-%-------|-%-------|-%-------|-%-------|-%-------|-%-------|-%-------|-%-------|-%-------|
D|-%-------|-%-------|-%-------|-%-------|-%-------|-%-------|-%-------|-%-------|-%-------|
A|---------|---------|---------|---------|---------|---------|---------|---------|---------|
E|---------|---------|---------|---------|---------|---------|---------|---------|---------|

E|---------|---------|---------|---------|---------|---------|---------|---------|---------|
B|---------|---------|---------|---------|---------|---------|---------|---------|---------|
G|-%-------|-%-------|-%-------|-%-------|-%-------|-%-------|-%-------|-%-------|-%-------|
D|-%-------|-%-------|-%-------|-%-------|-%-------|-%-------|-%-------|-%-------|-%-------|
A|---------|---------|---------|---------|---------|---------|---------|---------|---------|
E|---------|---------|---------|---------|---------|---------|---------|---------|---------|

E|---------|---------|---------|---------|---------|---------|---------|---------|---------|
B|---------|---------|---------|---------|---------|---------|---------|---------|---------|
G|-%-------|-%-------|-%-------|-%-------|-%-------|-%-------|-%-------|-%-------|-%-------|
D|-%-------|-%-------|-%-------|-%-------|-%-------|-%-------|-%-------|-%-------|-%-------|
A|---------|---------|---------|---------|---------|---------|---------|---------|---------|
E|---------|---------|---------|---------|---------|---------|---------|---------|---------|

E|---------|---------|---------|---------|---------|---------|---------|---------|---------|
B|---------|---------|---------|---------|---------|---------|---------|---------|---------|
G|-%-------|-%-------|-%-------|-%-------|-%-------|-%-------|-%-------|-%-------|-%-------|
D|-%-------|-%-------|-%-------|-%-------|-%-------|-%-------|-%-------|-%-------|-%-------|
A|---------|---------|---------|---------|---------|---------|---------|---------|---------|
E|---------|---------|---------|---------|---------|---------|---------|---------|---------|

E|---------|---------|---------|---------|---------|---------|--------------5-----------------------------|
B|---------|---------|---------|---------|---------|---------|------6---8--------6----8----5---------6----|
G|-%-------|-%-------|-%-------|-%-------|-%-------|-%-------|-%--------------------------------5---------|
D|-%-------|-%-------|-%-------|-%-------|-%-------|-%-------|-%------------------------------------------|
A|---------|---------|---------|---------|---------|---------|--------------------------------------------|
E|---------|---------|---------|---------|---------|---------|--------------------------------------------|

E|--------------5-----------------------------|--------------5-----------------------------|
B|-6----6---8--------6----8----5--------------|------6---8--------6----8----5--------------|
G|----------------------------------5----7----|-7--------------------------------5----7----|
D|--------------------------------------------|--------------------------------------------|
A|--------------------------------------------|--------------------------------------------|
E|--------------------------------------------|--------------------------------------------|

E|--------------5-----------------------------|--------------5-----------------------------|
B|------6---8--------6----8----5---------6----|-6----6---8--------6----8----5---------6----|
G|-7--------------------------------5---------|----------------------------------5---------|
D|--------------------------------------------|--------------------------------------------|
A|--------------------------------------------|--------------------------------------------|
E|--------------------------------------------|--------------------------------------------|

E|--------------5-----------------------------|--------------5-----------------------------|
B|-6----6---8--------6----8----5--------------|------6---8--------6----8----5--------------|
G|----------------------------------5----7----|-7--------------------------------5----7----|
D|--------------------------------------------|--------------------------------------------|
A|--------------------------------------------|--------------------------------------------|
E|--------------------------------------------|--------------------------------------------|

E|--------------5-----------------------------|---------|---------|---------|---------|
B|------6---8--------6----8----5--------------|---------|---------|---------|---------|
G|-7--------------------------------5----%----|-%-------|-%-------|-%-------|-%-------|
D|---------------------------------------%----|-%-------|-%-------|-%-------|-%-------|
A|--------------------------------------------|---------|---------|---------|---------|
E|--------------------------------------------|---------|---------|---------|---------|

E|---------|---------|---------|---------|---------|---------|---------|---------|---------|
B|---------|---------|---------|---------|---------|---------|---------|---------|---------|
G|-%-------|-%-------|-%-------|-%-------|-%-------|-%-------|-%-------|-%-------|-%-------|
D|-%-------|-%-------|-%-------|-%-------|-%-------|-%-------|-%-------|-%-------|-%-------|
A|---------|---------|---------|---------|---------|---------|---------|---------|---------|
E|---------|---------|---------|---------|---------|---------|---------|---------|---------|

E|---------|---------|---------|---------|---------|---------|---------|---------|---------|
B|---------|---------|---------|---------|---------|---------|---------|---------|---------|
G|-%-------|-%-------|-%-------|-%-------|-%-------|-%-------|-%-------|-%-------|-%-------|
D|-%-------|-%-------|-%-------|-%-------|-%-------|-%-------|-%-------|-%-------|-%-------|
A|---------|---------|---------|---------|---------|---------|---------|---------|---------|
E|---------|---------|---------|---------|---------|---------|---------|---------|---------|

E|---------|---------|---------|---------|---------|---------|---------|---------|---------|
B|---------|---------|---------|---------|---------|---------|---------|---------|---------|
G|-%-------|-%-------|-%-------|-%-------|-%-------|-%-------|-%-------|-%-------|-%-------|
D|-%-------|-%-------|-%-------|-%-------|-%-------|-%-------|-%-------|-%-------|-%-------|
A|---------|---------|---------|---------|---------|---------|---------|---------|---------|
E|---------|---------|---------|---------|---------|---------|---------|---------|---------|

E|---------|---------|---------|---------|---------|---------|---------|---------|---------|
B|---------|---------|---------|---------|---------|---------|---------|---------|---------|
G|-%-------|-%-------|-%-------|-%-------|-%-------|-%-------|-%-------|-%-------|-%-------|
D|-%-------|-%-------|-%-------|-%-------|-%-------|-%-------|-%-------|-%-------|-%-------|
A|---------|---------|---------|---------|---------|---------|---------|---------|---------|
E|---------|---------|---------|---------|---------|---------|---------|---------|---------|

E|---------|---------|---------|
B|---------|---------|---------|
G|-%-------|-%-------|-%-------|
D|-%-------|-%-------|-%-------|
A|---------|---------|---------|
E|---------|---------|---------|
Iron Maiden - Judas Be My Guide (4)
Iron Maiden - Judas Be My Guide (4).gp3