Iron Maiden - Judgement Of Heaven (2)

Iron Maiden



Title: Judgement of heaven
Album: The X-Factor
Artist: Iron Maiden
Author: Steve Harris

Track 1: Guitar 1
E|-----------------------------------------|-----------------------------------------|
B|-----------------------------------------|-----------------------------------------|
G|-4--------------4--------------4---------|-----------------------------------------|
D|-2----2----2----2----2----2----2----2----|-2--------------2--------------2---------|
A|-----------------------------------------|-4----4----4----4----4----4----4----4----|
E|-----------------------------------------|-----------------------------------------|

E|-----------------------------------------|-----------------------------------------|
B|-----------------------------------------|-----------------------------------------|
G|-----------------------------------------|-----------------------------------------|
D|-4--------------4--------------4---------|-4--------------4--------------4---------|
A|-2----2----2----2----2----2----2----2----|-2----2----2----2----2----2----2----1----|
E|-----------------------------------------|-----------------------------------------|

E|-----------------------------------------|-----------------------------------------|
B|-----------------------------------------|-----------------------------------------|
G|-4--------------4--------------4---------|-----------------------------------------|
D|-2----2----2----2----2----2----2----2----|-2--------------2--------------2---------|
A|-----------------------------------------|-4----4----4----4----4----4----4----4----|
E|-----------------------------------------|-----------------------------------------|

E|-----------------------------------------|-----------------------------------------|
B|-----------------------------------------|-----------------------------------------|
G|-----------------------------------------|-----------------------------------------|
D|-4--------------4--------------4---------|-4--------------4--------------4---------|
A|-2----2----2----2----2----2----2----2----|-2----2----2----2----2----2----2----2----|
E|-----------------------------------------|-----------------------------------------|

E|-----------------------------------------|-----------------------------------------|
B|-----------------------------------------|-----------------------------------------|
G|-4--------------4--------------4---------|-----------------------------------------|
D|-2----2----2----2----2----2----2----2----|-2--------------2--------------2---------|
A|-----------------------------------------|-4----4----4----4----4----4----4----4----|
E|-----------------------------------------|-----------------------------------------|

E|-----------------------------------------|-----------------------------------------|
B|-----------------------------------------|-----------------------------------------|
G|-----------------------------------------|-----------------------------------------|
D|-4--------------4--------------4---------|-4--------------4--------------4---------|
A|-2----2----2----2----2----2----2----2----|-2----2----2----2----2----2----2----2----|
E|-----------------------------------------|-----------------------------------------|

E|-----------------------------------------|-----------------------------------------|
B|-----------------------------------------|-----------------------------------------|
G|-4--------------4--------------4---------|-----------------------------------------|
D|-2----2----2----2----2----2----2----2----|-2--------------2--------------2---------|
A|-----------------------------------------|-4----4----4----4----4----4----4----4----|
E|-----------------------------------------|-----------------------------------------|

E|-----------------------------------------|-----------------------------------------|
B|-----------------------------------------|-----------------------------------------|
G|-----------------------------------------|-----------------------------------------|
D|-4--------------4--------------4---------|-4--------------4--------------4---------|
A|-2----2----2----2----2----2----2----2----|-2----2----2----2----2----2----2----2----|
E|-----------------------------------------|-----------------------------------------|

E|-----------------------------------------|-----------------------------------------|
B|-----------------------------------------|-----------------------------------------|
G|-4--------------4--------------4---------|-----------------------------------------|
D|-2----2----2----2----2----2----2----2----|-2--------------2--------------2---------|
A|-----------------------------------------|-4----4----4----4----4----4----4----4----|
E|-----------------------------------------|-----------------------------------------|

E|-----------------------------------------|-----------------------------------------|
B|-----------------------------------------|-----------------------------------------|
G|-----------------------------------------|-----------------------------------------|
D|-4--------------4--------------4---------|-4--------------4--------------4---------|
A|-2----2----2----2----2----2----2----2----|-2----2----2----2----2----2----2----2----|
E|-----------------------------------------|-----------------------------------------|

E|-----------------------------------------|-----------------------------------------|
B|-----------------------------------------|-----------------------------------------|
G|-4--------------4--------------4---------|-----------------------------------------|
D|-2----2----2----2----2----2----2----2----|-2--------------2--------------2---------|
A|-----------------------------------------|-4----4----4----4----4----4----4----4----|
E|-----------------------------------------|-----------------------------------------|

E|-----------------------------------------|-----------------------------------------|
B|-----------------------------------------|-----------------------------------------|
G|-----------------------------------------|-----------------------------------------|
D|-4--------------4--------------4---------|-4--------------4--------------4---------|
A|-2----2----2----2----2----2----2----2----|-2----2----2----2----2----2----2----2----|
E|-----------------------------------------|-----------------------------------------|

E|-----------------------------------------|-----------------------------------------|
B|-----------------------------------------|-----------------------------------------|
G|-2--------------2--------------2---------|-----------------------------------------|
D|-0----0----0----0----0----0----0----0----|-0--------------0--------------0---------|
A|-----------------------------------------|-4----4----4----4----4----4----4----4----|
E|-----------------------------------------|-----------------------------------------|

E|-----------------------------------------|-----------------------------------------|
B|-----------------------------------------|-----------------------------------------|
G|-4--------------4--------------4---------|-4--------------4--------------4---------|
D|-2----2----2----2----2----2----2----2----|-1----1----1----1----1----1----1----1----|
A|-----------------------------------------|-----------------------------------------|
E|-----------------------------------------|-----------------------------------------|

E|-----------------------------------------|-----------------------------------------|
B|-----------------------------------------|-----------------------------------------|
G|-2--------------2--------------2---------|-2-------------------2---------2---------|
D|-0----0----0----0----0----0----0----0----|-0----0----0----0----0----0----0----0----|
A|-----------------------------------------|------4---------4------------------------|
E|-----------------------------------------|-----------------------------------------|

E|-----------------------------------------|-----------------------------------------|
B|-----------------------------------------|-----------------------------------------|
G|-----------------------------------------|-----------------------------------------|
D|-4--------------4--------------4---------|-4--------------4--------------4---------|
A|-2----2----2----2----2----2----2----2----|-2----2----2----2----2----2----2----2----|
E|-----------------------------------------|-----------------------------------------|

E|-----------------------------------------|-----------------------------------------|
B|-----------------------------------------|-----------------------------------------|
G|-----------------------------------------|-----------------------------------------|
D|-11-------------11-------------11--------|-8--------------8--------------8---------|
A|-9----9----9----9----9----9----9----9----|-6----6----6----6----6----6----6----6----|
E|-----------------------------------------|-----------------------------------------|

E|-----------------------------------------|-----------------------------------------|
B|-----------------------------------------|-----------------------------------------|
G|-----------------------------------------|-----------------------------------------|
D|-6--------------6--------------6---------|-6--------------6--------------6---------|
A|-4----4----4----4----4----4----4----4----|-4----4----4----4----4----4----4----4----|
E|-----------------------------------------|-----------------------------------------|

E|-----------------------------------------|-----------------------------------------|
B|-----------------------------------------|-----------------------------------------|
G|-----------------------------------------|-----------------------------------------|
D|-11-------------11-------------11--------|-8--------------8--------------8---------|
A|-9----9----9----9----9----9----9----9----|-6----6----6----6----6----6----6----6----|
E|-----------------------------------------|-----------------------------------------|

E|-----------------------------------------|-----------------------------------------|
B|-----------------------------------------|-----------------------------------------|
G|-----------------------------------------|-----------------------------------------|
D|-6--------------6--------------6---------|-6--------------6--------------6---------|
A|-4----4----4----4----4----4----4----4----|-4----4----4----4----4----4----4----4----|
E|-----------------------------------------|-----------------------------------------|

E|-----------------------------------------|-----------------------------------------|
B|-----------------------------------------|-----------------------------------------|
G|-----------------------------------------|-----------------------------------------|
D|-11-------------11-------------11--------|-8--------------8--------------8---------|
A|-9----9----9----9----9----9----9----9----|-6----6----6----6----6----6----6----6----|
E|-----------------------------------------|-----------------------------------------|

E|-----------------------------------------|-----------------------------------------|
B|-----------------------------------------|-----------------------------------------|
G|-----------------------------------------|-----------------------------------------|
D|-6--------------6--------------6---------|-6--------------6--------------6---------|
A|-4----4----4----4----4----4----4----4----|-4----4----4----4----4----4----4----4----|
E|-----------------------------------------|-----------------------------------------|

E|-----------------------------------------|-----------------------------------------|
B|-----------------------------------------|-----------------------------------------|
G|-----------------------------------------|-----------------------------------------|
D|-11-------------11-------------11--------|-8--------------8--------------8---------|
A|-9----9----9----9----9----9----9----9----|-6----6----6----6----6----6----6----6----|
E|-----------------------------------------|-----------------------------------------|

E|-----------------------------------------|-----------------------------------------|
B|-----------------------------------------|-----------------------------------------|
G|-----------------------------------------|-----------------------------------------|
D|-6--------------6--------------6---------|-6--------------6--------------6---------|
A|-4----4----4----4----4----4----4----4----|-4----4----4----4----4----4----4----4----|
E|-----------------------------------------|-----------------------------------------|

E|-----------------------------------------|-----------------------------------------|
B|-----------------------------------------|-----------------------------------------|
G|-----------------------------------------|-----------------------------------------|
D|-2--------------2--------------2---------|-----------------------------------------|
A|-0----0----0----0----0----0----0----0----|-2--------------2--------------2---------|
E|-----------------------------------------|-0----0----0----0----0----0----0----0----|

E|-----------------------------------------|-----------------------------------------|
B|-----------------------------------------|-----------------------------------------|
G|-----------------------------------------|-----------------------------------------|
D|-4--------------4--------------4---------|-----------------------------------------|
A|-2----2----2----2----2----2----2----2----|-4--------------4--------------4---------|
E|-----------------------------------------|-2----2----2----2----2----2----2----2----|

E|-----------------------------------------|-----------------------------------------|
B|-----------------------------------------|-----------------------------------------|
G|-----------------------------------------|-----------------------------------------|
D|-2--------------2--------------2---------|-2--------------2--------------2---------|
A|-0----0----0----0----0----0----0----0----|-0----0----0----0----0----0----0----0----|
E|-----------------------------------------|-----------------------------------------|

E|-----------------------------------------|-----------------------------------------|
B|-----------------------------------------|-----------------------------------------|
G|-----------------------------------------|-----------------------------------------|
D|-----------------------------------------|-----------------------------------------|
A|-4--------------4--------------4---------|-4--------------4--------------4---------|
E|-2----2----2----2----2----2----2----2----|-2----2----2----2----2----2----2----2----|

E|-----------------------------|-----------------------------|-----------------------------|
B|-----------------------------|-----------------------------|-----------------------------|
G|-11---------11---------11----|------11---------11----11----|-7----------7----------9-----|
D|-11---------11---------11----|------11---------11----11----|-7----------7----------9-----|
A|-9-----9----9-----9----9-----|-9----9-----9----9-----9-----|-5-----5----5-----5----7-----|
E|-----------------------------|-----------------------------|-----------------------------|

E|-----------------------------|-----------------------------|-----------------------------|
B|-----------------------------|-----------------------------|-----------------------------|
G|------9----------9-----9-----|-11---------11---------11----|------11---------11----11----|
D|------9----------9-----9-----|-11---------11---------11----|------11---------11----11----|
A|-7----7-----7----7-----7-----|-9-----9----9-----9----9-----|-9----9-----9----9-----9-----|
E|-----------------------------|-----------------------------|-----------------------------|

E|-----------------------------|-----------------------------|-----------------------------|
B|-----------------------10----|------10---------------------|-----------------------------|
G|-7----------7----------9-----|------9----------------------|-11---------11---------11----|
D|-7----------7----------7-----|-7----7-----7----9-----9-----|-11---------11---------11----|
A|-5-----5----5-----5----------|-----------------7-----7-----|-9-----9----9-----9----9-----|
E|-----------------------------|-----------------------------|-----------------------------|

E|-----------------------------|-----------------------------|-----------------------------|
B|-----------------------------|-----------------------------|-----------------------------|
G|------11---------11----11----|-7----------7----------9-----|------9----------9-----9-----|
D|------11---------11----11----|-7----------7----------9-----|------9----------9-----9-----|
A|-9----9-----9----9-----9-----|-5-----5----5-----5----7-----|-7----7-----7----7-----7-----|
E|-----------------------------|-----------------------------|-----------------------------|

E|-----------------------------|-----------------------------|-----------------------------|
B|-----------------------------|-----------------------------|-----------------------10----|
G|-11---------11---------11----|------11---------11----11----|-7----------7----------9-----|
D|-11---------11---------11----|------11---------11----11----|-7----------7----------7-----|
A|-9-----9----9-----9----9-----|-9----9-----9----9-----9-----|-5-----5----5-----5----------|
E|-----------------------------|-----------------------------|-----------------------------|

E|-----------------------------|-----------------------------------------|-----------------------------------------|
B|------10---------------------|-----------------------------------------|-----------------------------------------|
G|------9----------------------|-----------------------------------------|-----------------------------------------|
D|-7----7-----7----9-----9-----|-11-------------11-------------11--------|-7--------------7--------------7---------|
A|-----------------7-----7-----|-9----9----9----9----9----9----9----9----|-5----5----5----5----5----5----5----5----|
E|-----------------------------|-----------------------------------------|-----------------------------------------|

E|-----------------------------------------|-----------------------------------------|
B|-----------------------------------------|-----------------------------------------|
G|-----------------------------------------|-----------------------------------------|
D|-11-------------11-------------11--------|-9--------------9--------------9---------|
A|-9----9----9----9----9----9----9----9----|-7----7----7----7----7----7----7----7----|
E|-----------------------------------------|-----------------------------------------|

E|-----------------------------------------|-----------------------------------------|
B|-----------------------------------------|-----------------------------------------|
G|-----------------------------------------|-----------------------------------------|
D|-11-------------11-------------11--------|-7--------------7--------------7---------|
A|-9----9----9----9----9----9----9----9----|-5----5----5----5----5----5----5----5----|
E|-----------------------------------------|-----------------------------------------|

E|-----------------------------------------|-----------------------------------------|
B|-----------------------------------------|-----------------------------------------|
G|-----------------------------------------|-----------------------------------------|
D|-----------------------------------------|-9--------------9--------------9---------|
A|-7--------------7--------------7---------|-7----7----7----7----7----7----7----7----|
E|-5----5----5----5----5----5----5----5----|-----------------------------------------|

E|-----------------------------------------|-----------------------------------------|
B|-----------------------------------------|-----------------------------------------|
G|-----------------------------------------|-----------------------------------------|
D|-----------------------------------------|-----------------------------------------|
A|-9--------------9--------------9---------|-9--------------9--------------9---------|
E|-7----7----7----7----7----7----7----7----|-7----7----7----7----7----7----7----7----|

E|-----------------------------------------|-----------------------------------------|
B|-----------------------------------------|-----------------------------------------|
G|-----------------------------------------|-----------------------------------------|
D|-----------------------------------------|-----------------------------------------|
A|-7--------------7--------------7---------|-7--------------7--------------7---------|
E|-5----5----5----5----5----5----5----5----|-5----5----5----5----5----5----5----5----|

E|-----------------------------------------|-----------------------------------------|
B|-----------------------------------------|-----------------------------------------|
G|-----------------------------------------|-----------------------------------------|
D|-9--------------9--------------9---------|-9--------------9--------------9---------|
A|-7----7----7----7----7----7----7----7----|-7----7----7----7----7----7----7----7----|
E|-----------------------------------------|-----------------------------------------|

E|-----------------------------------------|-----------------------------------------|
B|-----------------------------------------|-----------------------------------------|
G|-----------------------------------------|-----------------------------------------|
D|-----------------------------------------|-----------------------------------------|
A|-4--------------7--------------9---------|------7--------------4---------2---------|
E|-2----2----2----5----5----5----7----7----|-7----5----5----5----2----2----0----0----|

E|-----------------------------------------|-----------------------------------------|
B|-----------------------------------------|-----------------------------------------|
G|-----------------------------------------|-----------------------------------------|
D|-----------------------------------------|---------------------7---------9---------|
A|-4--------------7--------------9---------|------7--------------5----5----7----7----|
E|-2----2----2----5----5----5----7----7----|-7----5----5----5------------------------|

E|-----------------------------------------|-----------------------------------------|
B|-----------------------------------------|-----------------------------------------|
G|-----------------------------------------|-----------------------------------------|
D|-----------------------------------------|-----------------------------------------|
A|-4--------------7--------------9---------|------7--------------4---------2---------|
E|-2----2----2----5----5----5----7----7----|-7----5----5----5----2----2----0----0----|

E|-----------------------------------------|-----------------------------------------|
B|-----------------------------------------|-----------------------------------------|
G|-----------------------------------------|-----------------------------------------|
D|-----------------------------------------|---------------------7---------9---------|
A|-4--------------7--------------9---------|------7--------------5----5----7----7----|
E|-2----2----2----5----5----5----7----7----|-7----5----5----5------------------------|

E|-----------------------------------------|-----------------------------------------|
B|-----------------------------------------|-----------------------------------------|
G|-----------------------------------------|-----------------------------------------|
D|-----------------------------------------|-----------------------------------------|
A|-4--------------7--------------9---------|------7--------------4---------2---------|
E|-2----2----2----5----5----5----7----7----|-7----5----5----5----2----2----0----0----|

E|-----------------------------------------|-----------------------------------------|
B|-----------------------------------------|-----------------------------------------|
G|-----------------------------------------|-----------------------------------------|
D|-----------------------------------------|---------------------7---------9---------|
A|-4--------------7--------------9---------|------7--------------5----5----7----7----|
E|-2----2----2----5----5----5----7----7----|-7----5----5----5------------------------|

E|---------|---------|---------|---------|---------|---------|---------|---------|---------|
B|---------|---------|---------|---------|---------|---------|---------|---------|---------|
G|-%-------|-%-------|-%-------|-%-------|-%-------|-%-------|-%-------|-%-------|-%-------|
D|-%-------|-%-------|-%-------|-%-------|-%-------|-%-------|-%-------|-%-------|-%-------|
A|---------|---------|---------|---------|---------|---------|---------|---------|---------|
E|---------|---------|---------|---------|---------|---------|---------|---------|---------|

E|---------|-5-----7----9----5----7----9----5----|-7----9----5----7----9----5----7----9----|
B|---------|-------------------------------------|-----------------------------------------|
G|-%-------|-------------------------------------|-----------------------------------------|
D|-%-------|-------------------------------------|-----------------------------------------|
A|---------|-------------------------------------|-----------------------------------------|
E|---------|-------------------------------------|-----------------------------------------|

E|-5-----7----9----5----7----9----5----|-7----10--------9---------7-----5----|-5-----7----9----5----7----9----5----|
B|-------------------------------------|-------------------------------------|-------------------------------------|
G|-------------------------------------|-----------%---------%---------------|-------------------------------------|
D|-------------------------------------|-----------%---------%---------------|-------------------------------------|
A|-------------------------------------|-------------------------------------|-------------------------------------|
E|-------------------------------------|-------------------------------------|-------------------------------------|

E|-7----9----5----7----9----5----7----9----|-9------9----9---9---9----7----|-7-------|
B|-----------------------------------------|-------------------------------|---------|
G|-----------------------------------------|-------------------------------|---------|
D|-----------------------------------------|-------------------------------|---------|
A|-----------------------------------------|-------------------------------|---------|
E|-----------------------------------------|-------------------------------|---------|

E|---------------------|---------------------|-9-----10---7------7----|-7-----7----7----7----7----5----4----|
B|-7------9------10----|-7------9------10----|------------------------|-------------------------------------|
G|---------------------|---------------------|------------------------|-------------------------------------|
D|---------------------|---------------------|------------------------|-------------------------------------|
A|---------------------|---------------------|------------------------|-------------------------------------|
E|---------------------|---------------------|------------------------|-------------------------------------|

E|---------------------|--------5------4-----|-4-----5----5-----5-----5----|-5-------|
B|-7------9------10----|-5-------------------|-----------------------------|---------|
G|---------------------|---------------------|-----------------------------|---------|
D|---------------------|---------------------|-----------------------------|---------|
A|---------------------|---------------------|-----------------------------|---------|
E|---------------------|---------------------|-----------------------------|---------|

E|---------------------|---------------------|-9-----10---7------7----|-7-----7----7----7----7----5----4----|
B|-7------9------10----|-7------9------10----|------------------------|-------------------------------------|
G|---------------------|---------------------|------------------------|-------------------------------------|
D|---------------------|---------------------|------------------------|-------------------------------------|
A|---------------------|---------------------|------------------------|-------------------------------------|
E|---------------------|---------------------|------------------------|-------------------------------------|

E|---------------------|--------5------4-----|-4-----5----5-----5-----5----|-5-------|
B|-7------9------10----|-5-------------------|-----------------------------|---------|
G|---------------------|---------------------|-----------------------------|---------|
D|---------------------|---------------------|-----------------------------|---------|
A|---------------------|---------------------|-----------------------------|---------|
E|---------------------|---------------------|-----------------------------|---------|

E|-----------9----7------9---------|-----------9----7------9---------|-----------9----7------9-----|
B|---------------------------------|---------------------------------|-----------------------------|
G|-%----%---------------------%----|-%----%---------------------%----|-%----%----------------------|
D|-%----%---------------------%----|-%----%---------------------%----|-%----%----------------------|
A|---------------------------------|---------------------------------|-----------------------------|
E|---------------------------------|---------------------------------|-----------------------------|

E|-10----9----7------9---------|-----------9----7------9-----|-10----9----7--------------------|
B|-----------------------------|-----------------------------|------------------10---10---10---|
G|------------------------%----|-%----%----------------------|---------------------------------|
D|------------------------%----|-%----%----------------------|---------------------------------|
A|-----------------------------|-----------------------------|---------------------------------|
E|-----------------------------|-----------------------------|---------------------------------|

E|-7-------|-7---------7----9----7-------------------|-----------9----7------9---------|
B|---------|--------------------------10--------7----|---------------------------------|
G|---------|------%------------------------9---------|-%----%---------------------%----|
D|---------|------%----------------------------------|-%----%---------------------%----|
A|---------|-----------------------------------------|---------------------------------|
E|---------|-----------------------------------------|---------------------------------|

E|-----------9----7------9---------|-----------9----7------9-----|-10----9----7------9---------|
B|---------------------------------|-----------------------------|-----------------------------|
G|-%----%---------------------%----|-%----%----------------------|------------------------%----|
D|-%----%---------------------%----|-%----%----------------------|------------------------%----|
A|---------------------------------|-----------------------------|-----------------------------|
E|---------------------------------|-----------------------------|-----------------------------|

E|-----------9----7------9-----|-10----9----7--------------------|---------|-7---------7----9----7-------------------|
B|-----------------------------|------------------10---10---10---|---------|--------------------------10--------7----|
G|-%----%----------------------|---------------------------------|-9-------|------%------------------------9---------|
D|-%----%----------------------|---------------------------------|---------|------%----------------------------------|
A|-----------------------------|---------------------------------|---------|-----------------------------------------|
E|-----------------------------|---------------------------------|---------|-----------------------------------------|

E|-----------------------------------------|-----------------------------------------|
B|-----------------------------------------|-----------------------------------------|
G|-----------------------------------------|-----------------------------------------|
D|-11-------------11-------------11--------|-7--------------7--------------7---------|
A|-9----9----9----9----9----9----9----9----|-5----5----5----5----5----5----5----5----|
E|-----------------------------------------|-----------------------------------------|

E|-----------------------------------------|-----------------------------------------|
B|-----------------------------------------|-----------------------------------------|
G|-----------------------------------------|-----------------------------------------|
D|-11-------------11-------------11--------|-9--------------9--------------9---------|
A|-9----9----9----9----9----9----9----9----|-7----7----7----7----7----7----7----7----|
E|-----------------------------------------|-----------------------------------------|

E|-----------------------------------------|-----------------------------------------|
B|-----------------------------------------|-----------------------------------------|
G|-----------------------------------------|-----------------------------------------|
D|-11-------------11-------------11--------|-7--------------7--------------7---------|
A|-9----9----9----9----9----9----9----9----|-5----5----5----5----5----5----5----5----|
E|-----------------------------------------|-----------------------------------------|

E|-----------------------------------------|-----------------------------------------|
B|-----------------------------------------|-----------------------------------------|
G|-----------------------------------------|-----------------------------------------|
D|-----------------------------------------|-9--------------9--------------9---------|
A|-7--------------7--------------7---------|-7----7----7----7----7----7----7----7----|
E|-5----5----5----5----5----5----5----5----|-----------------------------------------|

E|-----------------------------------------|-----------------------------------------|
B|-----------------------------------------|-----------------------------------------|
G|-----------------------------------------|-----------------------------------------|
D|-----------------------------------------|-----------------------------------------|
A|-9--------------9--------------9---------|-9--------------9--------------9---------|
E|-7----7----7----7----7----7----7----7----|-7----7----7----7----7----7----7----7----|

E|-----------------------------------------|-----------------------------------------|
B|-----------------------------------------|-----------------------------------------|
G|-----------------------------------------|-----------------------------------------|
D|-----------------------------------------|-----------------------------------------|
A|-7--------------7--------------7---------|-7--------------7--------------7---------|
E|-5----5----5----5----5----5----5----5----|-5----5----5----5----5----5----5----5----|

E|-----------------------------------------|-----------------------------------------|
B|-----------------------------------------|-----------------------------------------|
G|-----------------------------------------|-----------------------------------------|
D|-9--------------9--------------9---------|-9--------------9--------------9---------|
A|-7----7----7----7----7----7----7----7----|-7----7----7----7----7----7----7----7----|
E|-----------------------------------------|-----------------------------------------|

E|-----------------------------------------|-----------------------------------------|
B|-----------------------------------------|-----------------------------------------|
G|-----------------------------------------|-----------------------------------------|
D|-----------------------------------------|-----------------------------------------|
A|-4--------------7--------------9---------|------7--------------4---------2---------|
E|-2----2----2----5----5----5----7----7----|-7----5----5----5----2----2----0----0----|

E|-----------------------------------------|-----------------------------------------|
B|-----------------------------------------|-----------------------------------------|
G|-----------------------------------------|-----------------------------------------|
D|-----------------------------------------|---------------------7---------9---------|
A|-4--------------7--------------9---------|------7--------------5----5----7----7----|
E|-2----2----2----5----5----5----7----7----|-7----5----5----5------------------------|

E|-------------------------|---------|
B|-------------------------|---------|
G|-------%-----%-----%-----|-%-------|
D|-------%-----%-----%-----|-%-------|
A|-4-----------------------|---------|
E|-2-----------------------|---------|
Iron Maiden - Judgement Of Heaven (2)
Iron Maiden - Judgement Of Heaven (2).gp4