Iron Maiden - Judgment Of Heaven

Iron Maiden



Title: Judgment Of Heaven (Solo + lnterlude)
Album: The X Factor
Artist: Iron Maiden
Author: Iron Maiden

Track 1: Distortion Guitar 1
E|-17--17--17--17--17--17--17--14--16--17--16--14--17--17----|-17-----17--17--16--14--16--14-------14-16--14--|
B|-----------------------------------------------------------|--------------------------------17--------------|
G|-----------------------------------------------------------|------------------------------------------------|
D|-----------------------------------------------------------|------------------------------------------------|
A|-----------------------------------------------------------|------------------------------------------------|
E|-----------------------------------------------------------|------------------------------------------------|

E|------14------------------------------------------------------------|------------------------16----16--16---14---|
B|-17--------17---15--17--15--14--15--14--15--14--17--17--15--14--17--|-17---15--14--15---14-----------------------|
G|--------------------------------------------------------------------|--------------------------------------------|
D|--------------------------------------------------------------------|--------------------------------------------|
A|--------------------------------------------------------------------|--------------------------------------------|
E|--------------------------------------------------------------------|--------------------------------------------|

E|-------------------------------------------------------------|----------------------------------------------|
B|-17----17--15--17--15-14-15--14--15--14----------------------|----------------------------------------------|
G|-----------------------------------------16--14--16--14--13--|-14--13-----------------------------%---------|
D|-------------------------------------------------------------|---------16--14--16--14--12---14----%----16---|
A|-------------------------------------------------------------|----------------------------------------------|
E|-------------------------------------------------------------|----------------------------------------------|

E|----------------------------|---------------------------------|-----------------------------------------|
B|----------------17---17-----|-17---15---14---------------7----|-7----9----10---7----9----10---7----9----|
G|------13---14---------------|----------------16---16----------|-----------------------------------------|
D|-16-------------------------|---------------------------------|-----------------------------------------|
A|----------------------------|---------------------------------|-----------------------------------------|
E|----------------------------|---------------------------------|-----------------------------------------|

E|-----------------------------------------|-----------------------------------------|
B|-10---7----9----10---7----9----10---7----|-7----9----10---7----9----10---7----9----|
G|-----------------------------------------|-----------------------------------------|
D|-----------------------------------------|-----------------------------------------|
A|-----------------------------------------|-----------------------------------------|
E|-----------------------------------------|-----------------------------------------|

E|-7---------------------------------------|-----------------------------------------|
B|-----------10--------9----7---------7----|-7----9----10---7----9----10---7----9----|
G|------%---------%--------------%---------|-----------------------------------------|
D|------%---------%--------------%---------|-----------------------------------------|
A|-----------------------------------------|-----------------------------------------|
E|-----------------------------------------|-----------------------------------------|

E|-----------------------------------------|-------------------|-------------------|
B|-10---7----9----10---7----9----10---10---|-10----------------|--------------7----|
G|-----------------------------------------|---------9----9----|-9-------9---------|
D|-----------------------------------------|-------------------|-------------------|
A|-----------------------------------------|-------------------|-------------------|
E|-----------------------------------------|-------------------|-------------------|

E|-----------------------------------------|-----------------------------------------|
B|-7----9----10---7----9----10---7----9----|-10---7----9----10---7----9----10---7----|
G|-----------------------------------------|-----------------------------------------|
D|-----------------------------------------|-----------------------------------------|
A|-----------------------------------------|-----------------------------------------|
E|-----------------------------------------|-----------------------------------------|

E|-----------------------------------------|-7---------------------------------------|
B|-7----9----10---7----9----10---7----9----|-----------10--------9----7---------7----|
G|-----------------------------------------|------%---------%--------------%---------|
D|-----------------------------------------|------%---------%--------------%---------|
A|-----------------------------------------|-----------------------------------------|
E|-----------------------------------------|-----------------------------------------|

E|-----------------------------------------|-----------------------------------------|
B|-7----9----10---7----9----10---7----9----|-10---7----9----10---7----9----10---10---|
G|-----------------------------------------|-----------------------------------------|
D|-----------------------------------------|-----------------------------------------|
A|-----------------------------------------|-----------------------------------------|
E|-----------------------------------------|-----------------------------------------|

E|---------|------------------------|------7----9---------7----9---------7----|-9---------7----9---------7----9---------|
B|---------|-------------------10---|-10-------------10-------------10--------|------10-------------10-------------10---|
G|-%-------|-%------%-----%---------|-----------------------------------------|-----------------------------------------|
D|-%-------|-%------%-----%---------|-----------------------------------------|-----------------------------------------|
A|---------|------------------------|-----------------------------------------|-----------------------------------------|
E|---------|------------------------|-----------------------------------------|-----------------------------------------|

E|------7----9---------7----9---------7----|-10--------9---------7-------------------|
B|-10-------------10-------------10--------|--------------------------10--------10---|
G|-----------------------------------------|------%---------%--------------%---------|
D|-----------------------------------------|------%---------%--------------%---------|
A|-----------------------------------------|-----------------------------------------|
E|-----------------------------------------|-----------------------------------------|

E|------7----9---------7----9---------7----|-9---------7----9---------7----9----9----|
B|-10-------------10-------------10--------|------10-------------10------------------|
G|-----------------------------------------|-----------------------------------------|
D|-----------------------------------------|-----------------------------------------|
A|-----------------------------------------|-----------------------------------------|
E|-----------------------------------------|-----------------------------------------|

E|-9-------7----7----|-7-------|-------------------------|-------------------------|
B|-------------------|---------|--------9----9-----10----|--------9----9-----10----|
G|-------------------|---------|-11----------------------|-11----------------------|
D|-------------------|---------|-------------------------|-------------------------|
A|-------------------|---------|-------------------------|-------------------------|
E|-------------------|---------|-------------------------|-------------------------|

E|-9-----10---------------|-------------------|-------------------------|-------------------------|
B|------------12---12-----|-12------10---9----|--------9----9-----10----|--------10---10----9-----|
G|------------------------|-------------------|-11----------------------|-9-----------------------|
D|------------------------|-------------------|-------------------------|-------------------------|
A|------------------------|-------------------|-------------------------|-------------------------|
E|------------------------|-------------------|-------------------------|-------------------------|

E|------------------------|---------|-------9---------------9-----|-------9---------------9-----|
B|-9-----10---10---10-----|-10------|------------12---12----------|------------12---12----------|
G|------------------------|---------|-%---------------------------|-%---------------------------|
D|------------------------|---------|-%---------------------------|-%---------------------------|
A|------------------------|---------|-----------------------------|-----------------------------|
E|------------------------|---------|-----------------------------|-----------------------------|

E|-------9--------------9---------9----|-10---10---9---------------9-----|-------9--------------9---------9----|
B|------------12---12------------------|----------------12---12----------|------------12---12------------------|
G|-%-------------------------%---------|---------------------------------|-%-------------------------%---------|
D|-%-------------------------%---------|---------------------------------|-%-------------------------%---------|
A|-------------------------------------|---------------------------------|-------------------------------------|
E|-------------------------------------|---------------------------------|-------------------------------------|

E|-10---10---9---------------------|---------|-----------------------------------------|
B|----------------12---12----10----|-12------|------10--------10---12---10---9---------|
G|---------------------------------|---------|-%---------%------------------------9----|
D|---------------------------------|---------|-%---------%-----------------------------|
A|---------------------------------|---------|-----------------------------------------|
E|---------------------------------|---------|-----------------------------------------|

E|-------9---------------9-----|-------9---------------9-----|-------9--------------9---------9----|
B|------------12---12----------|------------12---12----------|------------12---12------------------|
G|-%---------------------------|-%---------------------------|-%-------------------------%---------|
D|-%---------------------------|-%---------------------------|-%-------------------------%---------|
A|-----------------------------|-----------------------------|-------------------------------------|
E|-----------------------------|-----------------------------|-------------------------------------|

E|-10---10---9---------------9-----|-------9--------------9---------9----|-10---10---9---------------------|
B|----------------12---12----------|------------12---12------------------|----------------12---12----10----|
G|---------------------------------|-%-------------------------%---------|---------------------------------|
D|---------------------------------|-%-------------------------%---------|---------------------------------|
A|---------------------------------|-------------------------------------|---------------------------------|
E|---------------------------------|-------------------------------------|---------------------------------|

E|---------|-----------------------------------------|-----------------------------------------|
B|---------|------10--------10---12---10---9---------|-----------------------------------------|
G|-9-------|-%---------%------------------------9----|-----------------------------------------|
D|---------|-%---------%-----------------------------|-----------------------------------------|
A|---------|-----------------------------------------|-4----4----4----7----7----7----9----9----|
E|---------|-----------------------------------------|-2----2----2----5----5----5----7----7----|

E|-----------------------------------------|-----------------------------------------|
B|-----------------------------------------|-----------------------------------------|
G|-----------------------------------------|-----------------------------------------|
D|-----------------------------------------|-----------------------------------------|
A|-9----7----7----7----4----4----2----2----|-4----4----4----7----7----7----9----9----|
E|-7----5----5----5----2----2----0----0----|-2----2----2----5----5----5----7----7----|

E|-----------------------------------------|-----------------------------------------|
B|-----------------------------------------|-----------------------------------------|
G|-----------------------------------------|-----------------------------------------|
D|---------------------7----7----9----9----|-----------------------------------------|
A|-9----7----7----7----5----5----7----7----|-4----4----4----7----7----7----9----9----|
E|-7----5----5----5------------------------|-2----2----2----5----5----5----7----7----|

E|-----------------------------------------|-----------------------------------------|
B|-----------------------------------------|-----------------------------------------|
G|-----------------------------------------|-----------------------------------------|
D|-----------------------------------------|-----------------------------------------|
A|-9----7----7----7----4----4----2----2----|-4----4----4----7----7----7----9----9----|
E|-7----5----5----5----2----2----0----0----|-2----2----2----5----5----5----7----7----|

E|---------------------------------|--------------------|
B|---------------------------------|--------------------|
G|---------------------------------|-------%-----%------|
D|---------------------7-----9-----|-11----%-----%------|
A|-9----7----7----7----5-----7-----|-9------------------|
E|-7----5----5----5----------------|--------------------|
Iron Maiden - Judgment Of Heaven
Iron Maiden - Judgment Of Heaven.gp3