Iron Maiden - Kill Me Ce Soir

Iron Maiden



Title: Kill Me Ce Soir
Album: b-side du single Holy Smoke
Artist: Iron Maiden
Author: 

Track 1: Distortion Guitar
E|-----------------------------------------|-----------------------------------------|
B|-----------------------------------------|-----------------------------------------|
G|-----------------------------------------|-----------------------------------------|
D|-----------------------------------------|-----------------------------------------|
A|-----------------------------------------|-----------------------------------------|
E|-0----0----0----0----0----0----0----0----|-2----2----2----2----2----2----2----2----|

E|-----------------------------------------|-----------------------------------------|
B|-----------------------------------------|-----------------------------------------|
G|-----------------------------------------|-----------------------------------------|
D|-----------------------------------------|-----------------------------------------|
A|-----------------------------------------|-----------------------------------------|
E|-3----3----3----3----3----3----3----3----|-0----0----0----0----0----0----0----0----|

E|-----------------------------------------|-----------------------------------------|
B|-----------------------------------------|-----------------------------------------|
G|-----------------------------------------|-----------------------------------------|
D|-----------------------------------------|-----------------------------------------|
A|-----------------------------------------|-----------------------------------------|
E|-0----0----0----0----0----0----0----0----|-2----2----2----2----2----2----2----2----|

E|-----------------------------------------|-----------------------------------------|
B|-----------------------------------------|-----------------------------------------|
G|-----------------------------------------|-----------------------------------------|
D|-----------------------------------------|-----------------------------------------|
A|-----------------------------------------|-----------------------------------------|
E|-5----5----5----5----5----5----5----5----|-0----0----0----0----0----0----0----0----|

E|-----------------------------------------|-----------------------------------------|
B|-----------------------------------------|-----------------------------------------|
G|-----------------------------------------|-----------------------------------------|
D|-----------------------------------------|-----------------------------------------|
A|-----------------------------------------|-----------------------------------------|
E|-0----0----0----0----0----0----0----0----|-0----0----0----0----0----0----0----0----|

E|-----------------------------------------|-----------------------------------------|
B|-----------------------------------------|-----------------------------------------|
G|-----------------------------------------|-----------------------------------------|
D|-----------------------------------------|-----------------------------------------|
A|-----------------------------------------|-----------------------------------------|
E|-2----2----2----2----2----2----2----2----|-5----5----5----5----5----5----5----5----|

E|-----------------------------------------|-----------------------------------------|
B|-----------------------------------------|-----------------------------------------|
G|-----------------------------------------|-----------------------------------------|
D|-----------------------------------------|-----------------------------------------|
A|-----------------------------------------|-----------------------------------------|
E|-0----0----0----0----0----0----0----0----|-0----0----0----0----0----0----0----0----|

E|-----------------------------------------|-----------------------------------------|
B|-----------------------------------------|-----------------------------------------|
G|-----------------------------------------|-----------------------------------------|
D|-----------------------------------------|-----------------------------------------|
A|-----------------------------------------|-----------------------------------------|
E|-2----2----2----2----2----2----2----2----|-5----5----5----5----5----5----5----5----|

E|-----------------------------------------|-----------------------------------------|
B|-----------------------------------------|-----------------------------------------|
G|-----------------------------------------|-----------------------------------------|
D|-----------------------------------------|-----------------------------------------|
A|-----------------------------------------|-----------------------------------------|
E|-0----0----0----0----0----0----0----0----|-0----0----0----0----0----0----0----0----|

E|-----------------------------------------|-----------------------------------------|
B|-----------------------------------------|-----------------------------------------|
G|-----------------------------------------|-----------------------------------------|
D|-----------------------------------------|-----------------------------------------|
A|-----------------------------------------|-----------------------------------------|
E|-2----2----2----2----2----2----2----2----|-5----5----5----5----5----5----5----5----|

E|-----------------------------------------|-----------------------------------------|
B|-----------------------------------------|-----------------------------------------|
G|-----------------------------------------|-----------------------------------------|
D|-----------------------------------------|-----------------------------------------|
A|-----------------------------------------|-----------------------------------------|
E|-0----0----0----0----0----0----0----0----|-0----0----0----0----0----0----0----0----|

E|-----------------------------------------|-----------------------------------------|
B|-----------------------------------------|-----------------------------------------|
G|-----------------------------------------|-----------------------------------------|
D|-----------------------------------------|-----------------------------------------|
A|-----------------------------------------|-----------------------------------------|
E|-2----2----2----2----2----2----2----2----|-5----5----5----5----5----5----5----5----|

E|-----------------------------------------|-----------------------------------------|
B|-----------------------------------------|-----------------------------------------|
G|-----------------------------------------|-----------------------------------------|
D|-----------------------------------------|-----------------------------------------|
A|-----------------------------------------|-2----2----2----2----2----2----2----2----|
E|-0----0----0----0----0----0----0----0----|-0----0----0----0----0----0----0----0----|

E|-----------------------------------------|-----------------------------------------|
B|-----------------------------------------|-----------------------------------------|
G|-----------------------------------------|-----------------------------------------|
D|-----------------------------------------|-----------------------------------------|
A|-4----4----4----4----4----4----4----4----|-7----7----7----7----7----7----7----7----|
E|-2----2----2----2----2----2----2----2----|-5----5----5----5----5----5----5----5----|

E|-----------------------------------------|-----------------------------------------|
B|-----------------------------------------|-----------------------------------------|
G|-----------------------------------------|-----------------------------------------|
D|-----------------------------------------|-----------------------------------------|
A|-2----2----2----2----2----2----2----2----|-2----2----2----2----2----2----2----2----|
E|-0----0----0----0----0----0----0----0----|-0----0----0----0----0----0----0----0----|

E|-----------------------------------------|-----------------------------------------|
B|-----------------------------------------|-----------------------------------------|
G|-----------------------------------------|-----------------------------------------|
D|-----------------------------------------|-----------------------------------------|
A|-4----4----4----4----4----4----4----4----|-7----7----7----7----7----7----7----7----|
E|-2----2----2----2----2----2----2----2----|-5----5----5----5----5----5----5----5----|

E|-----------------------------------------|-----------------------------------------|
B|-----------------------------------------|-----------------------------------------|
G|-----------------------------------------|-----------------------------------------|
D|-----------------------------------------|-----------------------------------------|
A|-2----2----2----2----2----2----2----2----|-----------------------------------------|
E|-0----0----0----0----0----0----0----0----|-0----0----0----0----0----0----0----0----|

E|-----------------------------------------|-----------------------------------------|
B|-----------------------------------------|-----------------------------------------|
G|-----------------------------------------|-----------------------------------------|
D|-----------------------------------------|-----------------------------------------|
A|-----------------------------------------|-----------------------------------------|
E|-2----2----2----2----2----2----2----2----|-3----3----3----3----3----3----3----3----|

E|-----------------------------------------|-----------------------------------------|
B|-----------------------------------------|-----------------------------------------|
G|-----------------------------------------|-----------------------------------------|
D|-----------------------------------------|-----------------------------------------|
A|-----------------------------------------|-----------------------------------------|
E|-0----0----0----0----0----0----0----0----|-0----0----0----0----0----0----0----0----|

E|-----------------------------------------|-----------------------------------------|
B|-----------------------------------------|-----------------------------------------|
G|-----------------------------------------|-----------------------------------------|
D|-----------------------------------------|-----------------------------------------|
A|-----------------------------------------|-----------------------------------------|
E|-2----2----2----2----2----2----2----2----|-3----3----3----3----3----3----3----3----|

E|---------|---------|---------------------------------|---------------------------------|
B|---------|---------|---------------------------------|---------------------------------|
G|---------|---------|-%-------------------------------|-%-------------------------------|
D|-9-------|-9-------|-%-------------------------------|-%-------------------------------|
A|-7-------|-7-------|-----------3---------3-----------|-----------5---------5-----------|
E|-0-------|-0-------|------5---------5----------5-----|------7---------7----------7-----|

E|-----------------------------------------|----------------------------|---------------------------------|
B|-----------------------------------------|----------------------------|---------------------------------|
G|-%-------------------%-------------------|-%--------------------------|-%-------------------------------|
D|-%---------2----5----%---------4----7----|-%---------2----5----2------|-%-------------------------------|
A|------3-------------------5--------------|------3---------------------|-----------3---------3-----------|
E|-----------------------------------------|----------------------------|------5---------5----------5-----|

E|---------------------------------|-----------------------------------------|----------------------------|
B|---------------------------------|-----------------------------------------|----------------------------|
G|-%-------------------------------|-%-------------------%-------------------|-%--------------------------|
D|-%-------------------------------|-%---------2----5----%---------4----7----|-%----2--------------2------|
A|-----------5---------5-----------|------3-------------------5--------------|-----------5----2-----------|
E|------7---------7----------7-----|-----------------------------------------|----------------------------|

E|---------------------------------|-------------------------------------|-------------------|
B|---------------------------------|-------------------------------------|-------------------|
G|-%-------------------------------|-%-----------------------------------|-------------------|
D|-%-------------------------------|-%-----------------------------------|-7-------7---------|
A|-----------3---------3-----------|-----------5---------5---------------|-5-------5---------|
E|------5---------5----------5-----|------7---------7----------7----3----|--------------3----|

E|-------------------|---------------|-----------------------------------------|-----------------------------------------|
B|-------------------|---------------|-----------------------------------------|-----------------------------------------|
G|-------------------|---------------|-----------------------------------------|-----------------------------------------|
D|-7-------7---------|-7------2------|-----------------------------------------|-----------------------------------------|
A|-5-------5---------|-5------0------|-2----2----2----2----2----2----2----2----|-4----4----4----4----4----4----4----4----|
E|--------------3----|---------------|-0----0----0----0----0----0----0----0----|-2----2----2----2----2----2----2----2----|

E|-----------------------------------------|-----------------------------------------|
B|-----------------------------------------|-----------------------------------------|
G|-----------------------------------------|-----------------------------------------|
D|-----------------------------------------|-----------------------------------------|
A|-7----7----7----7----7----7----7----7----|-2----2----2----2----2----2----2----2----|
E|-5----5----5----5----5----5----5----5----|-0----0----0----0----0----0----0----0----|

E|-----------------------------------------|-----------------------------------------|
B|-----------------------------------------|-----------------------------------------|
G|-----------------------------------------|-----------------------------------------|
D|-----------------------------------------|-----------------------------------------|
A|-2----2----2----2----2----2----2----2----|-4----4----4----4----4----4----4----4----|
E|-0----0----0----0----0----0----0----0----|-2----2----2----2----2----2----2----2----|

E|-----------------------------------------|-----------------------------------------|
B|-----------------------------------------|-----------------------------------------|
G|-----------------------------------------|-----------------------------------------|
D|-----------------------------------------|-----------------------------------------|
A|-7----7----7----7----7----7----7----7----|-2----2----2----2----2----2----2----2----|
E|-5----5----5----5----5----5----5----5----|-0----0----0----0----0----0----0----0----|

E|-----------------------------------------|-----------------------------------------|
B|-----------------------------------------|-----------------------------------------|
G|-----------------------------------------|-----------------------------------------|
D|-----------------------------------------|-----------------------------------------|
A|-2----2----2----2----2----2----2----2----|-4----4----4----4----4----4----4----4----|
E|-0----0----0----0----0----0----0----0----|-2----2----2----2----2----2----2----2----|

E|-----------------------------------------|-----------------------------------------|
B|-----------------------------------------|-----------------------------------------|
G|-----------------------------------------|-----------------------------------------|
D|-----------------------------------------|-----------------------------------------|
A|-7----7----7----7----7----7----7----7----|-2----2----2----2----2----2----2----2----|
E|-5----5----5----5----5----5----5----5----|-0----0----0----0----0----0----0----0----|

E|-----------------------------------------|-----------------------------------------|
B|-----------------------------------------|-----------------------------------------|
G|-----------------------------------------|-----------------------------------------|
D|-----------------------------------------|-----------------------------------------|
A|-2----2----2----2----2----2----2----2----|-4----4----4----4----4----4----4----4----|
E|-0----0----0----0----0----0----0----0----|-2----2----2----2----2----2----2----2----|

E|-----------------------------------------|-----------------------------------------|
B|-----------------------------------------|-----------------------------------------|
G|-----------------------------------------|-----------------------------------------|
D|-----------------------------------------|-----------------------------------------|
A|-7----7----7----7----7----7----7----7----|-2----2----2----2----2----2----2----2----|
E|-5----5----5----5----5----5----5----5----|-0----0----0----0----0----0----0----0----|

E|-----------------------------------------|-----------------------------------------|
B|-----------------------------------------|-----------------------------------------|
G|-----------------------------------------|-----------------------------------------|
D|-----------------------------------------|-----------------------------------------|
A|-----------------------------------------|-----------------------------------------|
E|-0----0----0----0----0----0----0----0----|-2----2----2----2----2----2----2----2----|

E|-----------------------------------------|-----------------------------------------|
B|-----------------------------------------|-----------------------------------------|
G|-----------------------------------------|-----------------------------------------|
D|-----------------------------------------|-----------------------------------------|
A|-----------------------------------------|-----------------------------------------|
E|-3----3----3----3----3----3----3----3----|-0----0----0----0----0----0----0----0----|

E|-----------------------------------------|-----------------------------------------|
B|-----------------------------------------|-----------------------------------------|
G|-----------------------------------------|-----------------------------------------|
D|-----------------------------------------|-----------------------------------------|
A|-----------------------------------------|-----------------------------------------|
E|-0----0----0----0----0----0----0----0----|-2----2----2----2----2----2----2----2----|

E|-----------------------------------------|---------|-----------------------------------------|
B|-----------------------------------------|---------|-----------------------------------------|
G|-----------------------------------------|---------|-----------------------------------------|
D|-----------------------------------------|-9-------|-----------------------------------------|
A|-----------------------------------------|-7-------|-----------------------------------------|
E|-3----3----3----3----3----3----3----3----|-0-------|-0----0----0----0----0----0----0----0----|

E|-----------------------------------------|-----------------------------------------|
B|-----------------------------------------|-----------------------------------------|
G|-----------------------------------------|-----------------------------------------|
D|-----------------------------------------|-----------------------------------------|
A|-----------------------------------------|-----------------------------------------|
E|-2----2----2----2----2----2----2----2----|-5----5----5----5----5----5----5----5----|

E|-----------------------------------------|-----------------------------------------|
B|-----------------------------------------|-----------------------------------------|
G|-----------------------------------------|-----------------------------------------|
D|-----------------------------------------|-----------------------------------------|
A|-----------------------------------------|-----------------------------------------|
E|-0----0----0----0----0----0----0----0----|-0----0----0----0----0----0----0----0----|

E|-----------------------------------------|-----------------------------------------|
B|-----------------------------------------|-----------------------------------------|
G|-----------------------------------------|-----------------------------------------|
D|-----------------------------------------|-----------------------------------------|
A|-----------------------------------------|-----------------------------------------|
E|-2----2----2----2----2----2----2----2----|-5----5----5----5----5----5----5----5----|

E|-----------------------------------------|-----------------------------------------|
B|-----------------------------------------|-----------------------------------------|
G|-----------------------------------------|-----------------------------------------|
D|-----------------------------------------|-----------------------------------------|
A|-----------------------------------------|-2----2----2----2----2----2----2----2----|
E|-0----0----0----0----0----0----0----0----|-0----0----0----0----0----0----0----0----|

E|-----------------------------------------|-----------------------------------------|
B|-----------------------------------------|-----------------------------------------|
G|-----------------------------------------|-----------------------------------------|
D|-----------------------------------------|-----------------------------------------|
A|-4----4----4----4----4----4----4----4----|-7----7----7----7----7----7----7----7----|
E|-2----2----2----2----2----2----2----2----|-5----5----5----5----5----5----5----5----|

E|-----------------------------------------|--------------------------------------------|
B|-----------------------------------------|--------------------------------------------|
G|-----------------------------------------|--------------------------------------------|
D|-----------------------------------------|------2----2---------2---------2---2---2----|
A|-2----2----2----2----2----2----2----2----|------2----2---------2---------2---2---2----|
E|-0----0----0----0----0----0----0----0----|-0----0----0----0----0----0----0---0---0----|

E|--------------------------------------------|-----------------------------------------|
B|--------------------------------------------|-----------------------------------------|
G|--------------------------------------------|-----------------------------------------|
D|------4----4---------4---------4---4---4----|-----------------------------------------|
A|------4----4---------4---------4---4---4----|-7----7----7----7----7----7----7----7----|
E|-2----2----2----2----2----2----2---2---2----|-5----5----5----5----5----5----5----5----|

E|-----------------------------------------|-----------------------------------------|
B|-----------------------------------------|-----------------------------------------|
G|-----------------------------------------|-----------------------------------------|
D|-----------------------------------------|-----------------------------------------|
A|-2----2----2----2----2----2----2----2----|-----------------------------------------|
E|-0----0----0----0----0----0----0----0----|-0----0----0----0----0----0----0----0----|

E|-----------------------------------------|-----------------------------------------|
B|-----------------------------------------|-----------------------------------------|
G|-----------------------------------------|-----------------------------------------|
D|-----------------------------------------|-----------------------------------------|
A|-----------------------------------------|-----------------------------------------|
E|-2----2----2----2----2----2----2----2----|-3----3----3----3----3----3----3----3----|

E|-----------------------------------------|-----------------------------------------|
B|-----------------------------------------|-----------------------------------------|
G|-----------------------------------------|-----------------------------------------|
D|-----------------------------------------|-----------------------------------------|
A|-----------------------------------------|-----------------------------------------|
E|-0----0----0----0----0----0----0----0----|-0----0----0----0----0----0----0----0----|

E|-----------------------------------------|-----------------------------------------|
B|-----------------------------------------|-----------------------------------------|
G|-----------------------------------------|-----------------------------------------|
D|-----------------------------------------|-----------------------------------------|
A|-----------------------------------------|-----------------------------------------|
E|-2----2----2----2----2----2----2----2----|-3----3----3----3----3----3----3----3----|

E|---------|---------|---------------------------------|---------------------------------|
B|---------|---------|---------------------------------|---------------------------------|
G|---------|---------|-%-------------------------------|-%-------------------------------|
D|-9-------|-9-------|-%-------------------------------|-%-------------------------------|
A|-7-------|-7-------|-----------3---------3-----------|-----------5---------5-----------|
E|-0-------|-0-------|------5---------5----------5-----|------7---------7----------7-----|

E|-----------------------------------------|----------------------------|---------------------------------|
B|-----------------------------------------|----------------------------|---------------------------------|
G|-%-------------------%-------------------|-%--------------------------|-%-------------------------------|
D|-%---------2----5----%---------4----7----|-%----2----2----5----2------|-%-------------------------------|
A|------3-------------------5--------------|----------------------------|-----------3---------3-----------|
E|-----------------------------------------|----------------------------|------5---------5----------5-----|

E|---------------------------------|-----------------------------------------|----------------------------|
B|---------------------------------|-----------------------------------------|----------------------------|
G|-%-------------------------------|-%-------------------%-------------------|-%--------------------------|
D|-%-------------------------------|-%---------2----5----%---------4----7----|-%----2--------------2------|
A|-----------5---------5-----------|------3-------------------5--------------|-----------5----2-----------|
E|------7---------7----------7-----|-----------------------------------------|----------------------------|

E|---------------------------------|---------------------------------|-----------------------------------------|
B|---------------------------------|---------------------------------|-----------------------------------------|
G|-%-------------------------------|-%-------------------------------|-%-------------------%-------------------|
D|-%-------------------------------|-%-------------------------------|-%---------2----5----%---------4----7----|
A|-----------3---------3-----------|-----------5---------5-----------|------3-------------------5--------------|
E|------5---------5----------5-----|------7---------7----------7-----|-----------------------------------------|

E|----------------------------|---------------------------------|-------------------------------------|
B|----------------------------|---------------------------------|-------------------------------------|
G|-%--------------------------|-%-------------------------------|-%-----------------------------------|
D|-%----2--------------2------|-%-------------------------------|-%-----------------------------------|
A|-----------5----2-----------|-----------3---------3-----------|-----------5---------5---------------|
E|----------------------------|------5---------5----------5-----|------7---------7----------7----3----|

E|-------------------|-------------------|---------------|-----------------------------------------|
B|-------------------|-------------------|---------------|-----------------------------------------|
G|-------------------|-------------------|---------------|-----------------------------------------|
D|-7-------7---------|-7-------7---------|-7------2------|-----------------------------------------|
A|-5-------5---------|-5-------5---------|-5------0------|-----------------------------------------|
E|--------------3----|--------------3----|---------------|-0----0----0----0----0----0----0----0----|

E|-----------------------------------------|-----------------------------------------|
B|-----------------------------------------|-----------------------------------------|
G|-----------------------------------------|-----------------------------------------|
D|-----------------------------------------|-----------------------------------------|
A|-----------------------------------------|-----------------------------------------|
E|-2----2----2----2----2----2----2----2----|-5----5----5----5----5----5----5----5----|

E|-----------------------------------------|-----------------------------------------|
B|-----------------------------------------|-----------------------------------------|
G|-----------------------------------------|-----------------------------------------|
D|-----------------------------------------|-----------------------------------------|
A|-----------------------------------------|-----------------------------------------|
E|-0----0----0----0----0----0----0----0----|-0----0----0----0----0----0----0----0----|

E|-----------------------------------------|-----------------------------------------|
B|-----------------------------------------|-----------------------------------------|
G|-----------------------------------------|-----------------------------------------|
D|-----------------------------------------|-----------------------------------------|
A|-----------------------------------------|-----------------------------------------|
E|-2----2----2----2----2----2----2----2----|-5----5----5----5----5----5----5----5----|

E|-----------------------------------------|-----------------------------------------|
B|-----------------------------------------|-----------------------------------------|
G|-----------------------------------------|-----------------------------------------|
D|-----------------------------------------|-----------------------------------------|
A|-----------------------------------------|-2----2----2----2----2----2----2----2----|
E|-0----0----0----0----0----0----0----0----|-0----0----0----0----0----0----0----0----|

E|-----------------------------------------|-----------------------------------------|
B|-----------------------------------------|-----------------------------------------|
G|-----------------------------------------|-----------------------------------------|
D|-----------------------------------------|-----------------------------------------|
A|-4----4----4----4----4----4----4----4----|-7----7----7----7----7----7----7----7----|
E|-2----2----2----2----2----2----2----2----|-5----5----5----5----5----5----5----5----|

E|-----------------------------------------|-----------------------------------------|
B|-----------------------------------------|-----------------------------------------|
G|-----------------------------------------|-----------------------------------------|
D|-----------------------------------------|-----------------------------------------|
A|-2----2----2----2----2----2----2----2----|-2----2----2----2----2----2----2----2----|
E|-0----0----0----0----0----0----0----0----|-0----0----0----0----0----0----0----0----|

E|-----------------------------------------|-----------------------------------------|
B|-----------------------------------------|-----------------------------------------|
G|-----------------------------------------|-----------------------------------------|
D|-----------------------------------------|-----------------------------------------|
A|-4----4----4----4----4----4----4----4----|-7----7----7----7----7----7----7----7----|
E|-2----2----2----2----2----2----2----2----|-5----5----5----5----5----5----5----5----|

E|-----------------------------------------|-----------------------------------------|
B|-----------------------------------------|-----------------------------------------|
G|-----------------------------------------|-----------------------------------------|
D|-----------------------------------------|-----------------------------------------|
A|-2----2----2----2----2----2----2----2----|-2----2----2----2----2----2----2----2----|
E|-0----0----0----0----0----0----0----0----|-0----0----0----0----0----0----0----0----|

E|-----------------------------------------|-----------------------------------------|
B|-----------------------------------------|-----------------------------------------|
G|-----------------------------------------|-----------------------------------------|
D|-----------------------------------------|-----------------------------------------|
A|-4----4----4----4----4----4----4----4----|-7----7----7----7----7----7----7----7----|
E|-2----2----2----2----2----2----2----2----|-5----5----5----5----5----5----5----5----|

E|-----------------------------------------|-----------------------------------------|
B|-----------------------------------------|-----------------------------------------|
G|-----------------------------------------|-----------------------------------------|
D|-----------------------------------------|-----------------------------------------|
A|-2----2----2----2----2----2----2----2----|-2----2----2----2----2----2----2----2----|
E|-0----0----0----0----0----0----0----0----|-0----0----0----0----0----0----0----0----|

E|-----------------------------------------|-----------------------------------------|
B|-----------------------------------------|-----------------------------------------|
G|-----------------------------------------|-----------------------------------------|
D|-----------------------------------------|-----------------------------------------|
A|-4----4----4----4----4----4----4----4----|-7----7----7----7----7----7----7----7----|
E|-2----2----2----2----2----2----2----2----|-5----5----5----5----5----5----5----5----|

E|-----------------------------------------|-----------------------------------------|
B|-----------------------------------------|-----------------------------------------|
G|-----------------------------------------|-----------------------------------------|
D|-----------------------------------------|-----------------------------------------|
A|-2----2----2----2----2----2----2----2----|-2----2----2----2----2----2----2----2----|
E|-0----0----0----0----0----0----0----0----|-0----0----0----0----0----0----0----0----|

E|-----------------------------------------|-----------------------------------------|
B|-----------------------------------------|-----------------------------------------|
G|-----------------------------------------|-----------------------------------------|
D|-----------------------------------------|-----------------------------------------|
A|-4----4----4----4----4----4----4----4----|-7----7----7----7----7----7----7----7----|
E|-2----2----2----2----2----2----2----2----|-5----5----5----5----5----5----5----5----|

E|-----------------------------------------|-----------------------------------------|
B|-----------------------------------------|-----------------------------------------|
G|-----------------------------------------|-----------------------------------------|
D|-----------------------------------------|-----------------------------------------|
A|-2----2----2----2----2----2----2----2----|-2----2----2----2----2----2----2----2----|
E|-0----0----0----0----0----0----0----0----|-0----0----0----0----0----0----0----0----|

E|-----------------------------------------|-----------------------------------------|
B|-----------------------------------------|-----------------------------------------|
G|-----------------------------------------|-----------------------------------------|
D|-----------------------------------------|-----------------------------------------|
A|-4----4----4----4----4----4----4----4----|-7----7----7----7----7----7----7----7----|
E|-2----2----2----2----2----2----2----2----|-5----5----5----5----5----5----5----5----|

E|-----------------------------------------|-----------------------------------------|
B|-----------------------------------------|-----------------------------------------|
G|-----------------------------------------|-----------------------------------------|
D|-----------------------------------------|-----------------------------------------|
A|-2----2----2----2----2----2----2----2----|-2----2----2----2----2----2----2----2----|
E|-0----0----0----0----0----0----0----0----|-0----0----0----0----0----0----0----0----|

E|-----------------------------------------|-----------------------------------------|
B|-----------------------------------------|-----------------------------------------|
G|-----------------------------------------|-----------------------------------------|
D|-----------------------------------------|-----------------------------------------|
A|-4----4----4----4----4----4----4----4----|-7----7----7----7----7----7----7----7----|
E|-2----2----2----2----2----2----2----2----|-5----5----5----5----5----5----5----5----|

E|-----------------------------------------|-----------------------------------------|
B|-----------------------------------------|-----------------------------------------|
G|-----------------------------------------|-----------------------------------------|
D|-----------------------------------------|-----------------------------------------|
A|-2----2----2----2----2----2----2----2----|-2----2----2----2----2----2----2----2----|
E|-0----0----0----0----0----0----0----0----|-0----0----0----0----0----0----0----0----|

E|-----------------------------------------|-----------------------------------------|
B|-----------------------------------------|-----------------------------------------|
G|-----------------------------------------|-----------------------------------------|
D|-----------------------------------------|-----------------------------------------|
A|-4----4----4----4----4----4----4----4----|-7----7----7----7----7----7----7----7----|
E|-2----2----2----2----2----2----2----2----|-5----5----5----5----5----5----5----5----|

E|-----------------------------------------|-----------------------------------------|
B|-----------------------------------------|-----------------------------------------|
G|-----------------------------------------|-----------------------------------------|
D|-----------------------------------------|-----------------------------------------|
A|-2----2----2----2----2----2----2----2----|-2----2----2----2----2----2----2----2----|
E|-0----0----0----0----0----0----0----0----|-0----0----0----0----0----0----0----0----|

E|-----------------------------------------|-----------------------------------------|
B|-----------------------------------------|-----------------------------------------|
G|-----------------------------------------|-----------------------------------------|
D|-----------------------------------------|-----------------------------------------|
A|-4----4----4----4----4----4----4----4----|-7----7----7----7----7----7----7----7----|
E|-2----2----2----2----2----2----2----2----|-5----5----5----5----5----5----5----5----|

E|-----------------------------------------|-----------------------------------------|
B|-----------------------------------------|-----------------------------------------|
G|-----------------------------------------|-----------------------------------------|
D|-----------------------------------------|-----------------------------------------|
A|-2----2----2----2----2----2----2----2----|-----------------------------------------|
E|-0----0----0----0----0----0----0----0----|-0----0----0----0----0----0----0----0----|

E|-----------------------------------------|-----------------------------------------|
B|-----------------------------------------|-----------------------------------------|
G|-----------------------------------------|-----------------------------------------|
D|-----------------------------------------|-----------------------------------------|
A|-----------------------------------------|-----------------------------------------|
E|-2----2----2----2----2----2----2----2----|-5----5----5----5----5----5----5----5----|

E|-----------------------------------------|-----------------------------------------|
B|-----------------------------------------|-----------------------------------------|
G|-----------------------------------------|-----------------------------------------|
D|-----------------------------------------|-----------------------------------------|
A|-----------------------------------------|-----------------------------------------|
E|-0----0----0----0----0----0----0----0----|-0----0----0----0----0----0----0----0----|

E|-----------------------------------------|-----------------------------------------|
B|-----------------------------------------|-----------------------------------------|
G|-----------------------------------------|-----------------------------------------|
D|-----------------------------------------|-----------------------------------------|
A|-----------------------------------------|-----------------------------------------|
E|-2----2----2----2----2----2----2----2----|-5----5----5----5----5----5----5----5----|

E|-----------------------------------------|-----------------------------------------|
B|-----------------------------------------|-----------------------------------------|
G|-----------------------------------------|-----------------------------------------|
D|-----------------------------------------|-----------------------------------------|
A|-----------------------------------------|-2----2----2----2----2----2----2----2----|
E|-0----0----0----0----0----0----0----0----|-0----0----0----0----0----0----0----0----|

E|-----------------------------------------|-----------------------------------------|
B|-----------------------------------------|-----------------------------------------|
G|-----------------------------------------|-----------------------------------------|
D|-----------------------------------------|-----------------------------------------|
A|-4----4----4----4----4----4----4----4----|-7----7----7----7----7----7----7----7----|
E|-2----2----2----2----2----2----2----2----|-5----5----5----5----5----5----5----5----|

E|-----------------------------------------|-----------------------------------------|
B|-----------------------------------------|-----------------------------------------|
G|-----------------------------------------|-----------------------------------------|
D|-----------------------------------------|-----------------------------------------|
A|-2----2----2----2----2----2----2----2----|-2----2----2----2----2----2----2----2----|
E|-0----0----0----0----0----0----0----0----|-0----0----0----0----0----0----0----0----|

E|-----------------------------------------|-----------------------------------------|
B|-----------------------------------------|-----------------------------------------|
G|-----------------------------------------|-----------------------------------------|
D|-----------------------------------------|-----------------------------------------|
A|-4----4----4----4----4----4----4----4----|-7----7----7----7----7----7----7----7----|
E|-2----2----2----2----2----2----2----2----|-5----5----5----5----5----5----5----5----|

E|-----------------------------------------|---------|
B|-----------------------------------------|---------|
G|-----------------------------------------|-%-------|
D|-----------------------------------------|-%-------|
A|-2----2----2----2----2----2----2----2----|---------|
E|-0----0----0----0----0----0----0----0----|---------|
Iron Maiden - Kill Me Ce Soir
Iron Maiden - Kill Me Ce Soir.gp3