Iron Maiden - Killers

Iron Maiden



Title: Killers
Album: 
Artist: 
Author: Iron Maiden

Track 1: Guitar 1
E|---------|---------|---------|---------|-----------------------------------------------------------------|
B|---------|---------|---------|---------|-----------------------------------------------------------------|
G|-%-------|-%-------|-%-------|-%-------|-----------------------------------------------------------------|
D|-%-------|-%-------|-%-------|-%-------|-----------------------------------------------------------------|
A|---------|---------|---------|---------|-5---7---5---7---5---7---5---7---5---7---5---7---5---7---5---7---|
E|---------|---------|---------|---------|-----------------------------------------------------------------|

E|-----------------------------------------------------------------|-----------------------------------------------------------------|
B|-----------------------------------------------------------------|-----------------------------------------------------------------|
G|-----------------------------------------------------------------|-----------------------------------------------------------------|
D|-----------------------------------------------------------------|-----------------------------------------------------------------|
A|-5---7---5---7---5---7---5---7---5---7---5---7---5---7---5---7---|-5---7---5---7---5---7---5---7---5---7---5---7---5---7---5---7---|
E|-----------------------------------------------------------------|-----------------------------------------------------------------|

E|-----------------------------------------------------------------|---------------|
B|-----------------------------------------------------------------|---------------|
G|-----------------------------------------------------------------|-9-------%-----|
D|-----------------------------------------------------------------|-9-------%-----|
A|-5---7---5---7---5---7---5---7---5---7---5---7---5---7---5---7---|-7-------------|
E|-----------------------------------------------------------------|---------------|

E|---------------|---------|---------|---------------|---------------|---------|-------------------3----|
B|---------------|---------|---------|---------------|---------------|---------|-------------------3----|
G|-9-------%-----|-%-------|-%-------|-9-------%-----|-9-------%-----|-%-------|-%------%-----%---------|
D|-9-------%-----|-%-------|-%-------|-9-------%-----|-9-------%-----|-%-------|-%------%-----%---------|
A|-7-------------|---------|---------|-7-------------|-7-------------|---------|------------------------|
E|---------------|---------|---------|---------------|---------------|---------|------------------------|

E|-5-------5----7----|-8-------8----8----|-3-------3----3----|-5-------5----3----|-5-------5----7----|
B|-5-------5----7----|-8-------8----8----|-3-------3----3----|-5-------5----3----|-5-------5----7----|
G|-------------------|-------------------|-------------------|-------------------|-------------------|
D|-------------------|-------------------|-------------------|-------------------|-------------------|
A|-------------------|-------------------|-------------------|-------------------|-------------------|
E|-------------------|-------------------|-------------------|-------------------|-------------------|

E|-8-------8----8----|-3-------3----3----|-5-------|---------------|---------------|
B|-8-------8----8----|-3-------3----3----|-5-------|---------------|---------------|
G|-------------------|-------------------|---------|-9-------%-----|-9-------%-----|
D|-------------------|-------------------|---------|-9-------%-----|-9-------%-----|
A|-------------------|-------------------|---------|-7-------------|-7-------------|
E|-------------------|-------------------|---------|---------------|---------------|

E|---------|---------|---------------|---------------|---------|-------------------3----|
B|---------|---------|---------------|---------------|---------|-------------------3----|
G|-%-------|-%-------|-9-------%-----|-9-------%-----|-%-------|-%------%-----%---------|
D|-%-------|-%-------|-9-------%-----|-9-------%-----|-%-------|-%------%-----%---------|
A|---------|---------|-7-------------|-7-------------|---------|------------------------|
E|---------|---------|---------------|---------------|---------|------------------------|

E|-5-------5----7----|-8-------8----8----|-3-------3----3----|-5-------5----3----|-5-------5----7----|
B|-5-------5----7----|-8-------8----8----|-3-------3----3----|-5-------5----3----|-5-------5----7----|
G|-------------------|-------------------|-------------------|-------------------|-------------------|
D|-------------------|-------------------|-------------------|-------------------|-------------------|
A|-------------------|-------------------|-------------------|-------------------|-------------------|
E|-------------------|-------------------|-------------------|-------------------|-------------------|

E|-8-------8----8----|-3-------3----3----|-5-------|---------|---------|-----------------------------------------|
B|-8-------8----8----|-3-------3----3----|-5-------|---------|---------|-----------------------------------------|
G|-------------------|-------------------|---------|-%-------|-%-------|-%---------------------------------------|
D|-------------------|-------------------|---------|-%-------|-%-------|-%----5----4---------5----4---------5----|
A|-------------------|-------------------|---------|---------|---------|----------------5--------------5---------|
E|-------------------|-------------------|---------|---------|---------|-----------------------------------------|

E|-----------------------------------------|---------|---------|-----------------------------------------|
B|-----------------------------------------|---------|---------|-----------------------------------------|
G|-----------------------------------------|-%-------|-%-------|-%---------------------------------------|
D|-4---------5----4----5---------5----7----|-%-------|-%-------|-%----5----4---------5----4---------5----|
A|------5-------------------5--------------|---------|---------|----------------5--------------5---------|
E|-----------------------------------------|---------|---------|-----------------------------------------|

E|-----------------------------------------|---------|---------|-----------------------------------------|
B|-----------------------------------------|---------|---------|-----------------------------------------|
G|-----------------------------------------|-%-------|-%-------|-%---------------------------------------|
D|-4---------5----4----5---------5----7----|-%-------|-%-------|-%----5----4---------5----4---------5----|
A|------5-------------------5--------------|---------|---------|----------------5--------------5---------|
E|-----------------------------------------|---------|---------|-----------------------------------------|

E|-----------------------------------------|---------|---------|-----------------------------------------|
B|-----------------------------------------|---------|---------|-----------------------------------------|
G|-----------------------------------------|-%-------|-%-------|-%---------------------------------------|
D|-4---------5----4----5---------5----7----|-%-------|-%-------|-%----5----4---------5----4---------5----|
A|------5-------------------5--------------|---------|---------|----------------5--------------5---------|
E|-----------------------------------------|---------|---------|-----------------------------------------|

E|-----------------------------------------|-------------------------------------------|
B|-----------------------------------------|-------------------------------------------|
G|-----------------------------------------|-------------------------------------------|
D|-4---------5----4----5---------5----7----|-5------------------------------------9----|
A|------5-------------------5--------------|-3-----3----3---3---3----3---3---5----7----|
E|-----------------------------------------|-------------------------------------------|

E|----------------------------------------------|-------------------------------------------|
B|----------------------------------------------|-------------------------------------------|
G|----------------------------------------------|-------------------------------------------|
D|-9-----9----9---9---9----9---9---9----9---9---|-5------------------------------------12---|
A|-7-----7----7---7---7----7---7---7----7---7---|-3-----3----3---3---3----3---3---3----10---|
E|----------------------------------------------|-------------------------------------------|

E|----------------------------------------------|-------------------------------------------|
B|----------------------------------------------|-------------------------------------------|
G|----------------------------------------------|-------------------------------------------|
D|-12-------------------------------------------|-5------------------------------------9----|
A|-10----10---10--10--10---10--10--10---10--10--|-3-----3----3---3---3----3---3---5----7----|
E|----------------------------------------------|-------------------------------------------|

E|----------------------------------------------|-------------------------------------------|
B|----------------------------------------------|-------------------------------------------|
G|----------------------------------------------|-------------------------------------------|
D|-9-----9----9---9---9----9---9---9----9---9---|-5------------------------------------4----|
A|-7-----7----7---7---7----7---7---7----7---7---|-3-----3----3---3---3----3---3---3----2----|
E|----------------------------------------------|-------------------------------------------|

E|------------------------|------------------------|------------------------|---------|
B|------------------------|------------------------|------------------------|---------|
G|------------------------|------------------------|------------------------|---------|
D|-4------4-----4----4----|-4------4-----4----5----|-5------5-----5----7----|-7-------|
A|-2------2-----2----2----|-2------2-----2----3----|-3------3-----3----5----|-5-------|
E|------------------------|------------------------|------------------------|---------|

E|-----------------------|--------------------------------------------------------|
B|-----------------------|--------------------------------------------------------|
G|-14-----14-----12--12--|-12---11--11--11------------------------------------%---|
D|-----------------------|-------------------14--14--14---12--14--14--12------%---|
A|-----------------------|------------------------------------------------14------|
E|-----------------------|--------------------------------------------------------|

E|-----------------------|---------------------------------------|-----------------------|
B|-----------------------|---------------------------------------|-----------------------|
G|-14-----14-----12--12--|-12---11--11--11-----------------------|-14-----14-----12--12--|
D|-----------------------|-------------------14--14--14---12-----|-----------------------|
A|-----------------------|---------------------------------------|-----------------------|
E|-----------------------|---------------------------------------|-----------------------|

E|--------------------------------------------------------|-----------------------|
B|--------------------------------------------------------|-----------------------|
G|-12---11--11--11------------------------------------%---|-14-----14-----12--12--|
D|-------------------14--14--14---12--14--14--12------%---|-----------------------|
A|------------------------------------------------14------|-----------------------|
E|--------------------------------------------------------|-----------------------|

E|---------------------------------------|---------------------------------------|-------------------------------------------|
B|---------------------------------------|---------------------------------------|-------------------------------------------|
G|-12---11--11--11-----------------------|-------%------------------%------------|-------------------------------------------|
D|-------------------14--14--14---12-----|-------%------------------%----9---9---|-9----7---7---7----7---7---7----9----9-----|
A|---------------------------------------|-5----------7---7---7----------7---7---|-7----5---5---5----5---5---5----7----7-----|
E|---------------------------------------|-3----------5---5---5------------------|-------------------------------------------|

E|---------------------------------------|--------------------------------------------|
B|---------------------------------------|--------------------------------------------|
G|-------%------------------%------------|-----------%---------%----------------------|
D|-------%------------------%----9---9---|-9----7----%----7----%----7----9------------|
A|-5----------7---7---7----------7---7---|-7----5---------5---------5----7----2---2---|
E|-3----------5---5---5------------------|------------------------------------0---0---|

E|---------------------------------------|-------------------------------------------|
B|---------------------------------------|-------------------------------------------|
G|-------%------------------%------------|-------------------------------------------|
D|-------%------------------%----9---9---|-9----7---7---7----7---7---7----9----9-----|
A|-5----------7---7---7----------7---7---|-7----5---5---5----5---5---5----7----7-----|
E|-3----------5---5---5------------------|-------------------------------------------|

E|---------------------------|-----------------------------------------------------|
B|---------------------------|-----------------------------------------------------|
G|-------%-------------------|-----------------------------------------------------|
D|-------%----2---2---2------|-3----3---3---3----3---3---3----3---3---3----3---3---|
A|-5----------0---0---0------|-3----3---3---3----3---3---3----3---3---3----3---3---|
E|-3-------------------------|-1----1---1---1----1---1---1----1---1---1----1---1---|

E|-----------------------------------------------|-----------------------------------------------------|
B|-----------------------------------------------|-----------------------------------------------------|
G|-----------------------------------------------|-----------------------------------------------------|
D|-3----3---3---3----3---3---3--------------5----|-5----5---5---5----5---5---5----5---5---5----5---5---|
A|-3----3---3---3----3---3---3--------------5----|-5----5---5---5----5---5---5----5---5---5----5---5---|
E|-1----1---1---1----1---1---1----0----1----3----|-3----3---3---3----3---3---3----3---3---3----3---3---|

E|-----------------------------------------------|-----------------------------------------------------|
B|-----------------------------------------------|-----------------------------------------------------|
G|-----------------------------------------------|-----------------------------------------------------|
D|-5----5---5---5----5---5---5----5---------5----|-5----5---5---5----5---5---5----5---5---5----5---5---|
A|-5----5---5---5----5---5---5----5----2----3----|-3----3---3---3----3---3---3----3---3---3----3---3---|
E|-3----3---3---3----3---3---3----3--------------|-----------------------------------------------------|

E|-----------------------------------------------|-----------------------------------------------------|
B|-----------------------------------------------|-----------------------------------------------------|
G|-----------------------------------------------|-----------------------------------------------------|
D|-5----5---5---5----5---5---5--------------7----|-7----7---7---7----7---7---7----7---7---7----7---7---|
A|-3----3---3---3----3---3---3----2----3----5----|-5----5---5---5----5---5---5----5---5---5----5---5---|
E|-----------------------------------------------|-----------------------------------------------------|

E|-----------------------------------------------|-----------------------------------------------------|
B|-----------------------------------------------|-----------------------------------------------------|
G|-----------------------------------------------|-----------------------------------------------------|
D|-7----7---7---7----7---7---7----7---------3----|-3----3---3---3----3---3---3----3---3---3----3---3---|
A|-5----5---5---5----5---5---5----5---------3----|-3----3---3---3----3---3---3----3---3---3----3---3---|
E|-------------------------------------0----1----|-1----1---1---1----1---1---1----1---1---1----1---1---|

E|-----------------------------------------------|-----------------------------------------------------|
B|-----------------------------------------------|-----------------------------------------------------|
G|-----------------------------------------------|-----------------------------------------------------|
D|-3----3---3---3----3---3---3--------------5----|-5----5---5---5----5---5---5----5---5---5----5---5---|
A|-3----3---3---3----3---3---3--------------5----|-5----5---5---5----5---5---5----5---5---5----5---5---|
E|-1----1---1---1----1---1---1----0----1----3----|-3----3---3---3----3---3---3----3---3---3----3---3---|

E|-----------------------------------------------|-----------------------------------------------------|
B|-----------------------------------------------|-----------------------------------------------------|
G|-----------------------------------------------|-----------------------------------------------------|
D|-5----5---5---5----5---5---5----5---------5----|-5----5---5---5----5---5---5----5---5---5----5---5---|
A|-5----5---5---5----5---5---5----5----2----3----|-3----3---3---3----3---3---3----3---3---3----3---3---|
E|-3----3---3---3----3---3---3----3--------------|-----------------------------------------------------|

E|-----------------------------------------------------|---------------------------------|
B|-----------------------------------------------------|---------------------------------|
G|-----------------------------------------------------|-------%--------------%----------|
D|-5----5---5---5----5---5---5----5---5---5----5---5---|-7-----%----7----7----%----7-----|
A|-3----3---3---3----3---3---3----3---3---3----3---3---|-5----------5----5---------5-----|
E|-----------------------------------------------------|---------------------------------|

E|---------|-----------------------------------------------------|-----------------------------------------------------|
B|---------|-----------------------------------------------------|-----------------------------------------------------|
G|---------|-----------------------------------------------------|-----------------------------------------------------|
D|-7-------|-9----9---9---9----9---9---9----9---9---9----9---9---|-9----9---9---9----9---9---9----9---9---9----9---9---|
A|-5-------|-7----7---7---7----7---7---7----7---7---7----7---7---|-7----7---7---7----7---7---7----7---7---7----7---7---|
E|---------|-----------------------------------------------------|-----------------------------------------------------|

E|-----------------------------------------------------|--------------------------------------------------|
B|-----------------------------------------------------|--------------------------------------------------|
G|-----------------------------------------------------|--------------------------------------------------|
D|-5----5---5---5----5---5---7----7---7---7----7---7---|-9----9---9---9----9---9---9----9---9---9----7----|
A|-3----3---3---3----3---3---5----5---5---5----5---5---|-7----7---7---7----7---7---7----7---7---7----5----|
E|-----------------------------------------------------|--------------------------------------------------|

E|-----------------------------------------------------|-----------------------------------------------------|
B|-----------------------------------------------------|-----------------------------------------------------|
G|-----------------------------------------------------|-----------------------------------------------------|
D|-9----9---9---9----9---9---9----9---9---9----9---9---|-9----9---9---9----9---9---9----9---9---9----9---9---|
A|-7----7---7---7----7---7---7----7---7---7----7---7---|-7----7---7---7----7---7---7----7---7---7----7---7---|
E|-----------------------------------------------------|-----------------------------------------------------|

E|-----------------------------------------------------|-----------------------------------------------------|
B|-----------------------------------------------------|-----------------------------------------------------|
G|-----------------------------------------------------|-----------------------------------------------------|
D|-5----5---5---5----5---5---7----7---7---7----7---7---|-9----9---9---9----9---9---9----9---9---9----9---9---|
A|-3----3---3---3----3---3---5----5---5---5----5---5---|-7----7---7---7----7---7---7----7---7---7----7---7---|
E|-----------------------------------------------------|-----------------------------------------------------|

E|--------------------------------------------------|-----------------------------------------------------|
B|--------------------------------------------------|-----------------------------------------------------|
G|--------------------------------------------------|-----------------------------------------------------|
D|-2----2---2---2----2---2---2----2---2---2----4----|-5----5---5---5----5---5---5----5---5---5----5---5---|
A|-0----0---0---0----0---0---0----0---0---0----2----|-3----3---3---3----3---3---3----3---3---3----3---3---|
E|--------------------------------------------------|-----------------------------------------------------|

E|-----------------------------------------------------|--------------------------------------------------|
B|-----------------------------------------------------|--------------------------------------------------|
G|-----------------------------------------------------|--------------------------------------------------|
D|---------------------------4----4---4---4----4---4---|-2----2---2---2----2---2---2----2---2---2---------|
A|-5----5---5---5----5---5---2----2---2---2----2---2---|-0----0---0---0----0---0---0----0---0---0----5----|
E|-3----3---3---3----3---3-----------------------------|---------------------------------------------3----|

E|--------------------------------------------------|-----------------------------------------------------|
B|--------------------------------------------------|-----------------------------------------------------|
G|--------------------------------------------------|-----------------------------------------------------|
D|-2----2---2---2----2---2---2----2---2---2----4----|-5----5---5---5----5---5---5----5---5---5----5---5---|
A|-0----0---0---0----0---0---0----0---0---0----2----|-3----3---3---3----3---3---3----3---3---3----3---3---|
E|--------------------------------------------------|-----------------------------------------------------|

E|-----------------------------------------------------|-------------------|---------------------------------------|
B|-----------------------------------------------------|-------------------|---------------------------------------|
G|-----------------------------------------------------|-------------------|-------%------------------%------------|
D|---------------------------4----4---4---4----4---4---|-2-------2---------|-------%------------------%----9---9---|
A|-5----5---5---5----5---5---2----2---2---2----2---2---|-0-------0----5----|-5----------7---7---7----------7---7---|
E|-3----3---3---3----3---3-----------------------------|--------------3----|-3----------5---5---5------------------|

E|-------------------------------------------|---------------------------------------|
B|-------------------------------------------|---------------------------------------|
G|-------------------------------------------|-------%------------------%------------|
D|-9----7---7---7----7---7---7----9----9-----|-------%------------------%----9---9---|
A|-7----5---5---5----5---5---5----7----7-----|-5----------7---7---7----------7---7---|
E|-------------------------------------------|-3----------5---5---5------------------|

E|--------------------------------------------|---------------------------------------|
B|--------------------------------------------|---------------------------------------|
G|-----------%---------%----------------------|-------%------------------%------------|
D|-9----7----%----7----%----7----9------------|-------%------------------%----9---9---|
A|-7----5---------5---------5----7----2---2---|-5----------7---7---7----------7---7---|
E|------------------------------------0---0---|-3----------5---5---5------------------|

E|-------------------------------------------|---------------------------|-----------------------------------------------------|
B|-------------------------------------------|---------------------------|-----------------------------------------------------|
G|-------------------------------------------|-------%-------------------|-----------------------------------------------------|
D|-9----7---7---7----7---7---7----9----9-----|-------%----2---2---2------|-4----4---4---4----4---4---4----4---4---4----4---4---|
A|-7----5---5---5----5---5---5----7----7-----|-5----------0---0---0------|-2----2---2---2----2---2---2----2---2---2----2---2---|
E|-------------------------------------------|-3-------------------------|-----------------------------------------------------|

E|--------------------------------------------------|--------------------------------------------|
B|--------------------------------------------------|--------------------------1----3----5---3---|
G|--------------------------------------------------|---------------------4----------------------|
D|-4----4---4---4----4---4---4----4---4---4---------|------4----5----7---------------------------|
A|-2----2---2---2----2---2---2----2---2---2----7----|-7------------------------------------------|
E|--------------------------------------------------|--------------------------------------------|

E|-----------2-----2-----2-----|---------|---------|-----------------------------------------|
B|-1----3----------------------|---------|---------|-----------------------------------------|
G|-----------------------------|-%-------|-%-------|-%---------------------------------------|
D|-----------------------------|-%-------|-%-------|-%----5----4---------5----4---------5----|
A|-----------------------------|---------|---------|----------------5--------------5---------|
E|-----------------------------|---------|---------|-----------------------------------------|

E|-----------------------------------------|---------|---------|-----------------------------------------|
B|-----------------------------------------|---------|---------|-----------------------------------------|
G|-----------------------------------------|-%-------|-%-------|-%---------------------------------------|
D|-4---------5----4----5---------5----7----|-%-------|-%-------|-%----5----4---------5----4---------5----|
A|------5-------------------5--------------|---------|---------|----------------5--------------5---------|
E|-----------------------------------------|---------|---------|-----------------------------------------|

E|-----------------------------------------|---------|---------|-----------------------------------------|
B|-----------------------------------------|---------|---------|-----------------------------------------|
G|-----------------------------------------|-%-------|-%-------|-%---------------------------------------|
D|-4---------5----4----5---------5----7----|-%-------|-%-------|-%----5----4---------5----4---------5----|
A|------5-------------------5--------------|---------|---------|----------------5--------------5---------|
E|-----------------------------------------|---------|---------|-----------------------------------------|

E|-----------------------------------------|---------|---------|-----------------------------------------|
B|-----------------------------------------|---------|---------|-----------------------------------------|
G|-----------------------------------------|-%-------|-%-------|-%---------------------------------------|
D|-4---------5----4----5---------5----7----|-%-------|-%-------|-%----5----4---------5----4---------5----|
A|------5-------------------5--------------|---------|---------|----------------5--------------5---------|
E|-----------------------------------------|---------|---------|-----------------------------------------|

E|-----------------------------------------|-------------------------------------------|
B|-----------------------------------------|-------------------------------------------|
G|-----------------------------------------|-------------------------------------------|
D|-4---------5----4----5---------5----7----|-5------------------------------------9----|
A|------5-------------------5--------------|-3-----3----3---3---3----3---3---5----7----|
E|-----------------------------------------|-------------------------------------------|

E|----------------------------------------------|-------------------------------------------|
B|----------------------------------------------|-------------------------------------------|
G|----------------------------------------------|-------------------------------------------|
D|-9-----9----9---9---9----9---9---9----9---9---|-5------------------------------------12---|
A|-7-----7----7---7---7----7---7---7----7---7---|-3-----3----3---3---3----3---3---3----10---|
E|----------------------------------------------|-------------------------------------------|

E|----------------------------------------------|-------------------------------------------|
B|----------------------------------------------|-------------------------------------------|
G|----------------------------------------------|-------------------------------------------|
D|-12-------------------------------------------|-5------------------------------------9----|
A|-10----10---10--10--10---10--10--10---10--10--|-3-----3----3---3---3----3---3---5----7----|
E|----------------------------------------------|-------------------------------------------|

E|----------------------------------------------|-------------------------------------------|
B|----------------------------------------------|-------------------------------------------|
G|----------------------------------------------|-------------------------------------------|
D|-9-----9----9---9---9----9---9---9----9---9---|-5------------------------------------4----|
A|-7-----7----7---7---7----7---7---7----7---7---|-3-----3----3---3---3----3---3---3----2----|
E|----------------------------------------------|-------------------------------------------|

E|------------------------|------------------------|------------------------|---------|
B|------------------------|------------------------|------------------------|---------|
G|------------------------|------------------------|------------------------|---------|
D|-4------4-----4----4----|-4------4-----4----5----|-5------5-----5----7----|-7-------|
A|-2------2-----2----2----|-2------2-----2----3----|-3------3-----3----5----|-5-------|
E|------------------------|------------------------|------------------------|---------|

E|---------|---------|-----------------------------------------|-----------------------------------------|
B|---------|---------|-----------------------------------------|-----------------------------------------|
G|-%-------|-%-------|-%---------------------------------------|-----------------------------------------|
D|-%-------|-%-------|-%----5----4---------5----4---------5----|-4---------5----4----5---------5----7----|
A|---------|---------|----------------5--------------5---------|------5-------------------5--------------|
E|---------|---------|-----------------------------------------|-----------------------------------------|

E|---------|---------|-----------------------------------------|-----------------------------------------|
B|---------|---------|-----------------------------------------|-----------------------------------------|
G|-%-------|-%-------|-%---------------------------------------|-----------------------------------------|
D|-%-------|-%-------|-%----5----4---------5----4---------5----|-4---------5----4----5---------5----7----|
A|---------|---------|----------------5--------------5---------|------5-------------------5--------------|
E|---------|---------|-----------------------------------------|-----------------------------------------|

E|---------|---------|-----------------------------------------|-----------------------------------------|
B|---------|---------|-----------------------------------------|-----------------------------------------|
G|-%-------|-%-------|-%---------------------------------------|-----------------------------------------|
D|-%-------|-%-------|-%----5----4---------5----4---------5----|-4---------5----4----5---------5----7----|
A|---------|---------|----------------5--------------5---------|------5-------------------5--------------|
E|---------|---------|-----------------------------------------|-----------------------------------------|

E|---------|---------|-----------------------------------------|-----------------------------------------|
B|---------|---------|-----------------------------------------|-----------------------------------------|
G|-%-------|-%-------|-%---------------------------------------|-----------------------------------------|
D|-%-------|-%-------|-%----5----4---------5----4---------5----|-4---------5----4----5---------5----7----|
A|---------|---------|----------------5--------------5---------|------5-------------------5--------------|
E|---------|---------|-----------------------------------------|-----------------------------------------|

E|-------------------------------------------|----------------------------------------------|
B|-------------------------------------------|----------------------------------------------|
G|-------------------------------------------|----------------------------------------------|
D|-5------------------------------------9----|-9-----9----9---9---9----9---9---9----9---9---|
A|-3-----3----3---3---3----3---3---5----7----|-7-----7----7---7---7----7---7---7----7---7---|
E|-------------------------------------------|----------------------------------------------|

E|-------------------------------------------|----------------------------------------------|
B|-------------------------------------------|----------------------------------------------|
G|-------------------------------------------|----------------------------------------------|
D|-5------------------------------------12---|-12-------------------------------------------|
A|-3-----3----3---3---3----3---3---3----10---|-10----10---10--10--10---10--10--10---10--10--|
E|-------------------------------------------|----------------------------------------------|

E|-------------------------------------------|----------------------------------------------|
B|-------------------------------------------|----------------------------------------------|
G|-------------------------------------------|----------------------------------------------|
D|-5------------------------------------9----|-9-----9----9---9---9----9---9---9----9---9---|
A|-3-----3----3---3---3----3---3---5----7----|-7-----7----7---7---7----7---7---7----7---7---|
E|-------------------------------------------|----------------------------------------------|

E|-------------------------------------------|------------------------|------------------------|
B|-------------------------------------------|------------------------|------------------------|
G|-------------------------------------------|------------------------|------------------------|
D|-5------------------------------------4----|-4------4-----4----4----|-4------4-----4----5----|
A|-3-----3----3---3---3----3---3---3----2----|-2------2-----2----2----|-2------2-----2----3----|
E|-------------------------------------------|------------------------|------------------------|

E|------------------------|---------|---------|---------|-----------------------------------------|
B|------------------------|---------|---------|---------|------12---10--------12---10--------12---|
G|------------------------|---------|-%-------|-%-------|-%--------------11-------------11--------|
D|-5------5-----5----7----|-7-------|-%-------|-%-------|-%---------------------------------------|
A|-3------3-----3----5----|-5-------|---------|---------|-----------------------------------------|
E|------------------------|---------|---------|---------|-----------------------------------------|

E|---------------------10------------------|-------------------|
B|-10--------10-------------13---12---10---|-------------------|
G|------11--------%------------------------|-12------9----9----|
D|----------------%------------------------|---------9----9----|
A|-----------------------------------------|---------7----7----|
E|-----------------------------------------|-------------------|
Iron Maiden - Killers
Iron Maiden - Killers.gp3