Iron Maiden - King Of Twilight

Iron Maiden



Title: King Of Twilight
Album: 2 Minutes To Midnight B-Side
Artist: Iron Maiden
Author: 

Track 1: Dist. Guitar 1
E|---------|---------|----------------10---10-----|-10------|----------------5----5---------------|
B|---------|---------|----------------7----7------|-7-------|-----------8--------------8----------|
G|-%-------|-%-------|------2---------------------|---------|------5------------------------5-----|
D|-%-------|-%-------|-0---------0----------------|---------|-0-----------------------------------|
A|---------|---------|----------------------------|---------|-------------------------------------|
E|---------|---------|----------------------------|---------|-------------------------------------|

E|---------|----------------10---10-----|-10------|----------------5----5---------------|
B|---------|----------------7----7------|-7-------|-----------8--------------8----------|
G|-5-------|------2---------------------|---------|------5------------------------5-----|
D|---------|-0---------0----------------|---------|-0-----------------------------------|
A|---------|----------------------------|---------|-------------------------------------|
E|---------|----------------------------|---------|-------------------------------------|

E|---------|---------------------------------|---------------------------------|---------------------|
B|---------|-7----------7---------8----7-----|-7--------------8----7-----7-----|-7------8------7-----|
G|-5-------|-7----------7---------7----7-----|-7--------------7----7-----7-----|-7------7------7-----|
D|---------|-------0---------X---------------|------0----0---------------------|---------------------|
A|---------|---------------------------------|---------------------------------|---------------------|
E|---------|---------------------------------|---------------------------------|---------------------|

E|---------------------------------|---------------------------------|---------------------------------|
B|-7----8----8-----8-----7----8----|-7----------7---------8----7-----|-7--------------8----7-----7-----|
G|-7----7----7-----7---------------|-7----------7---------7----7-----|-7--------------7----7-----7-----|
D|---------------------------------|-------0---------X---------------|------0----0---------------------|
A|---------------------------------|---------------------------------|---------------------------------|
E|---------------------------------|---------------------------------|---------------------------------|

E|-------------------------------------|-----------------------------------------|-----------------------------------------|
B|-8----8----8----8----8----8----8-----|-8----8----8----8----8----8----7----8----|-----------3--------------6--------------|
G|-7----7----7----7----7----7----7-----|-7----7----7----7----7----7----7----7----|-----------2--------------5--------------|
D|-------------------------------------|-----------------------------------------|-0----0---------0----0---------0----0----|
A|-------------------------------------|-----------------------------------------|-----------------------------------------|
E|-------------------------------------|-----------------------------------------|-----------------------------------------|

E|-----------------------------------------|-------------------|---------|-----------------------------------------|
B|-8--------------10-------------8---------|------6----6-------|-6-------|-----------3--------------6--------------|
G|-7--------------9--------------7---------|------5----5-------|-5-------|-----------2--------------5--------------|
D|------0----0---------0----0---------0----|-0-----------------|---------|-0----0---------0----0---------0----0----|
A|-----------------------------------------|-------------------|---------|-----------------------------------------|
E|-----------------------------------------|-------------------|---------|-----------------------------------------|

E|-----------------------------------------|-------------------|---------|-----------------------------------------|
B|-8--------------10-------------8---------|------6----6-------|-6-------|-----------3--------------6--------------|
G|-7--------------9--------------7---------|------5----5-------|-5-------|-----------2--------------5--------------|
D|------0----0---------0----0---------0----|-0-----------------|---------|-0----0---------0----0---------0----0----|
A|-----------------------------------------|-------------------|---------|-----------------------------------------|
E|-----------------------------------------|-------------------|---------|-----------------------------------------|

E|-----------------------------------------|----------------------------------------------|
B|-8--------------10-------------8---------|---------6----6------------6-------------6----|
G|-7--------------9--------------7---------|---------5----5------------5-------------5----|
D|------0----0---------0----0---------0----|-0---0-------------0---0---------0---0--------|
A|-----------------------------------------|----------------------------------------------|
E|-----------------------------------------|----------------------------------------------|

E|----------------------|-----------------------------------------|-----------------------------------------|
B|-6------------6-------|-----------3--------------6--------------|-8--------------10-------------8---------|
G|-5------------5-------|-----------2--------------5--------------|-7--------------9--------------7---------|
D|------0---0-----------|-0----0---------0----0---------0----0----|------0----0---------0----0---------0----|
A|----------------------|-----------------------------------------|-----------------------------------------|
E|----------------------|-----------------------------------------|-----------------------------------------|

E|--------------------|---------|-----------------------------------------|-----------------------------------------|
B|------6------6------|-6-------|-----------3--------------6--------------|-8--------------10-------------8---------|
G|-%----5------5------|-5-------|-----------2--------------5--------------|-7--------------9--------------7---------|
D|-%------------------|---------|-0----0---------0----0---------0----0----|------0----0---------0----0---------0----|
A|--------------------|---------|-----------------------------------------|-----------------------------------------|
E|--------------------|---------|-----------------------------------------|-----------------------------------------|

E|-------------------|---------|-------------------------------------|-------------------------------------|
B|------6----6-------|-6-------|-------------------------------------|-------------------------------------|
G|------5----5-------|-5-------|----------------5----7---------------|-5----2----5----2----5----7----7-----|
D|-0-----------------|---------|-5----0----2----5----7---------------|-5----2----5----2----5----7----7-----|
A|-------------------|---------|---------------------------0----0----|-------------------------------------|
E|-------------------|---------|-------------------------------------|-------------------------------------|

E|-------------------------------------|----------------------------|-------------------------------------|
B|-------------------------------------|----------------------------|-------------------------------------|
G|----------------5----7---------------|-5----2----5----2-----------|----------------5----7---------------|
D|-5----0----2----5----7---------------|-5----2----5----2----5------|-5----0----2----5----7---------------|
A|---------------------------0----0----|----------------------------|---------------------------0----0----|
E|-------------------------------------|----------------------------|-------------------------------------|

E|-------------------------------------|-------------------------------------|----------------------------|
B|-------------------------------------|-------------------------------------|----------------------------|
G|-5----2----5----2----5----7----7-----|----------------5----7---------------|-5----2----5----2-----------|
D|-5----2----5----2----5----7----7-----|-5----0----2----5----7---------------|-5----2----5----2----5------|
A|-------------------------------------|---------------------------0----0----|----------------------------|
E|-------------------------------------|-------------------------------------|----------------------------|

E|-------------------------------------|-------------------------------------|-------------------------------------|
B|-------------------------------------|-------------------------------------|-------------------------------------|
G|----------------5----7---------------|-5----2----5----2----5----7----7-----|----------------5----7---------------|
D|-5----0----2----5----7---------------|-5----2----5----2----5----7----7-----|-5----0----2----5----7---------------|
A|---------------------------0----0----|-------------------------------------|---------------------------0----0----|
E|-------------------------------------|-------------------------------------|-------------------------------------|

E|----------------------------|-------------------------------------|-------------------------------------|
B|----------------------------|-------------------------------------|-------------------------------------|
G|-5----2----5----2-----------|----------------5----7---------------|-5----2----5----2----5----7----7-----|
D|-5----2----5----2----5------|-5----0----2----5----7---------------|-5----2----5----2----5----7----7-----|
A|----------------------------|---------------------------0----0----|-------------------------------------|
E|----------------------------|-------------------------------------|-------------------------------------|

E|-------------------------------------|----------------------------|---------|---------|
B|-------------------------------------|----------------------------|---------|---------|
G|----------------5----7---------------|-5----2----5----2-----------|---------|---------|
D|-5----0----2----5----7---------------|-5----2----5----2----5------|-5-------|-5-------|
A|---------------------------0----0----|----------------------------|-5-------|-5-------|
E|-------------------------------------|----------------------------|-3-------|-3-------|

E|---------|---------|-------X----X----15----15----|-15----15---12-------------------|
B|---------|---------|-------X----X----------------|-----------------15---13---------|
G|---------|-2-------|-2---------------------------|---------------------------14----|
D|-5-------|-2-------|-2---------------------------|---------------------------------|
A|-5-------|-0-------|-0---------------------------|---------------------------------|
E|-3-------|---------|-----------------------------|---------------------------------|

E|---------|---------|---------|-------------------------------------|-------------------------------------|
B|---------|---------|---------|-------------------------------------|-------------------------------------|
G|-5-------|-5-------|-5-------|----------------5----7---------------|-5----2----5----2----5----7----7-----|
D|-5-------|-5-------|-5-------|-5----0----2----5----7---------------|-5----2----5----2----5----7----7-----|
A|-3-------|-3-------|-3-------|---------------------------0----0----|-------------------------------------|
E|---------|---------|---------|-------------------------------------|-------------------------------------|

E|-------------------------------------|----------------------------|-------------------------------------|
B|-------------------------------------|----------------------------|-------------------------------------|
G|----------------5----7---------------|-5----2----5----2-----------|----------------5----7---------------|
D|-5----0----2----5----7---------------|-5----2----5----2----5------|-5----0----2----5----7---------------|
A|---------------------------0----0----|----------------------------|---------------------------0----0----|
E|-------------------------------------|----------------------------|-------------------------------------|

E|-------------------------------------|-------------------------------------|----------------------------|
B|-------------------------------------|-------------------------------------|----------------------------|
G|-5----2----5----2----5----7----7-----|----------------5----7---------------|-5----2----5----2-----------|
D|-5----2----5----2----5----7----7-----|-5----0----2----5----7---------------|-5----2----5----2----5------|
A|-------------------------------------|---------------------------0----0----|----------------------------|
E|-------------------------------------|-------------------------------------|----------------------------|

E|-------------------------------------|-------------------------------------|-------------------------------------|
B|-------------------------------------|-------------------------------------|-------------------------------------|
G|----------------5----7---------------|-5----2----5----2----5----7----7-----|----------------5----7---------------|
D|-5----0----2----5----7---------------|-5----2----5----2----5----7----7-----|-5----0----2----5----7---------------|
A|---------------------------0----0----|-------------------------------------|---------------------------0----0----|
E|-------------------------------------|-------------------------------------|-------------------------------------|

E|----------------------------|-------------------------------------|-------------------------------------|
B|----------------------------|-------------------------------------|-------------------------------------|
G|-5----2----5----2-----------|----------------5----7---------------|-5----2----5----2----5----7----7-----|
D|-5----2----5----2----5------|-5----0----2----5----7---------------|-5----2----5----2----5----7----7-----|
A|----------------------------|---------------------------0----0----|-------------------------------------|
E|----------------------------|-------------------------------------|-------------------------------------|

E|-------------------------------------|----------------------------|---------|---------|
B|-------------------------------------|----------------------------|---------|---------|
G|----------------5----7---------------|-5----2----5----2-----------|---------|---------|
D|-5----0----2----5----7---------------|-5----2----5----2----5------|-5-------|-5-------|
A|---------------------------0----0----|----------------------------|-5-------|-5-------|
E|-------------------------------------|----------------------------|-3-------|-3-------|

E|---------|---------|-------X----X----15----15----|-15----15---12-------------------|
B|---------|---------|-------X----X----------------|-----------------15---13---------|
G|---------|-2-------|-2---------------------------|---------------------------14----|
D|-5-------|-2-------|-2---------------------------|---------------------------------|
A|-5-------|-0-------|-0---------------------------|---------------------------------|
E|-3-------|---------|-----------------------------|---------------------------------|

E|---------|---------|---------|-------------------------------------------|-------------------------------------------|
B|---------|---------|---------|-------------------------------------------|-------------------------------------------|
G|-5-------|-5-------|-5-------|-----------------%--------------------%----|-----------------%--------------------%----|
D|-5-------|-5-------|-5-------|-----------------%--------------------%----|-----------------%--------------------%----|
A|-3-------|-3-------|-3-------|-------------------------------------------|-------------------------------------------|
E|---------|---------|---------|-3---3---3---3--------3---3---3---3--------|-3---3---3---3--------3---3---3---3--------|

E|-------------------------------------------|-------------------------------------------|
B|-------------------------------------------|-------------------------------------------|
G|-----------------%--------------------%----|-----------------%--------------------%----|
D|-----------------%--------------------%----|-----------------%--------------------%----|
A|-------------------------------------------|-------------------------------------------|
E|-3---3---3---3--------3---3---3---3--------|-3---3---3---3--------3---3---3---3--------|

E|-------------------------------------------|-------------------------------------------|
B|-------------------------------------------|-------------------------------------------|
G|-----------------%--------------------%----|-----------------%--------------------%----|
D|-----------------%--------------------%----|-----------------%--------------------%----|
A|-------------------------------------------|-------------------------------------------|
E|-3---3---3---3--------3---3---3---3--------|-3---3---3---3--------3---3---3---3--------|

E|-------------------------------------------|-------------------------------------------|
B|-------------------------------------------|-------------------------------------------|
G|-----------------%--------------------%----|-----------------%--------------------%----|
D|-----------------%--------------------%----|-----------------%--------------------%----|
A|-3---3---3---3--------3---3---3---3--------|-3---3---3---3--------3---3---3---3--------|
E|-------------------------------------------|-------------------------------------------|

E|-------------------------------------------|-------------------------------------------|
B|-------------------------------------------|-------------------------------------------|
G|-----------------%--------------------%----|-----------------%--------------------%----|
D|-----------------%--------------------%----|-----------------%--------------------%----|
A|-------------------------------------------|-------------------------------------------|
E|-1---1---1---1--------1---1---1---1--------|-1---1---1---1--------1---1---1---1--------|

E|---------------------------------------|-------------------------------------------|
B|---------------------------------------|-------------------------------------------|
G|---------------------------------------|-----------------%--------------------%----|
D|-3---X---3----5-----3---X---3----5-----|-----------------%--------------------%----|
A|-3---X---3----5-----3---X---3----5-----|-------------------------------------------|
E|---------------------------------------|-3---3---3---3--------3---3---3---3--------|

E|-------------------------------------------|-------------------------------------------|
B|-------------------------------------------|-------------------------------------------|
G|-----------------%--------------------%----|-----------------%--------------------%----|
D|-----------------%--------------------%----|-----------------%--------------------%----|
A|-------------------------------------------|-3---3---3---3--------3---3---3---3--------|
E|-3---3---3---3--------3---3---3---3--------|-------------------------------------------|

E|-------------------------------------------|-------------------------------------------|
B|-------------------------------------------|-------------------------------------------|
G|-----------------%--------------------%----|-----------------%--------------------%----|
D|-----------------%--------------------%----|-----------------%--------------------%----|
A|-3---3---3---3--------3---3---3---3--------|-------------------------------------------|
E|-------------------------------------------|-1---1---1---1--------1---1---1---1--------|

E|-------------------------------------------|---------------------------------------|
B|-------------------------------------------|---------------------------------------|
G|-----------------%--------------------%----|---------------------------------------|
D|-----------------%--------------------%----|-3---X---3----5-----3---X---3----5-----|
A|-------------------------------------------|-3---X---3----5-----3---X---3----5-----|
E|-1---1---1---1--------1---1---1---1--------|---------------------------------------|

E|-------------------------------------------|-------------------------------------------|
B|-------------------------------------------|-------------------------------------------|
G|-----------------%--------------------%----|-----------------%--------------------%----|
D|-----------------%--------------------%----|-----------------%--------------------%----|
A|-------------------------------------------|-------------------------------------------|
E|-3---3---3---3--------3---3---3---3--------|-3---3---3---3--------3---3---3---3--------|

E|-------------------------------------------|-------------------------------------------|
B|-------------------------------------------|-------------------------------------------|
G|-----------------%--------------------%----|-----------------%--------------------%----|
D|-----------------%--------------------%----|-----------------%--------------------%----|
A|-3---3---3---3--------3---3---3---3--------|-3---3---3---3--------3---3---3---3--------|
E|-------------------------------------------|-------------------------------------------|

E|-------------------------------------------|-------------------------------------------|
B|-------------------------------------------|-------------------------------------------|
G|-----------------%--------------------%----|-----------------%--------------------%----|
D|-----------------%--------------------%----|-----------------%--------------------%----|
A|-------------------------------------------|-------------------------------------------|
E|-1---1---1---1--------1---1---1---1--------|-1---1---1---1--------1---1---1---1--------|

E|---------------------------------------|-------------------------------------------|
B|---------------------------------------|-------------------------------------------|
G|---------------------------------------|-----------------%--------------------%----|
D|-3---X---3----5-----3---X---3----5-----|-----------------%--------------------%----|
A|-3---X---3----5-----3---X---3----5-----|-------------------------------------------|
E|---------------------------------------|-3---3---3---3--------3---3---3---3--------|

E|-------------------------------------------|-------------------------------------------|
B|-------------------------------------------|-------------------------------------------|
G|-----------------%--------------------%----|-----------------%--------------------%----|
D|-----------------%--------------------%----|-----------------%--------------------%----|
A|-------------------------------------------|-3---3---3---3--------3---3---3---3--------|
E|-3---3---3---3--------3---3---3---3--------|-------------------------------------------|

E|-------------------------------------------|-4--------------4--------------|-6--------------6--------------|
B|-------------------------------------------|------4--------------4---------|------6--------------6---------|
G|-----------------%--------------------%----|-----------5--------------5----|-----------7--------------7----|
D|-----------------%--------------------%----|-------------------------------|-------------------------------|
A|-3---3---3---3--------3---3---3---3--------|-------------------------------|-------------------------------|
E|-------------------------------------------|-------------------------------|-------------------------------|

E|-8--------------11---8---------|-10---8---------8--------------|-4--------------4--------------|
B|------8-------------------8----|-----------8---------8---------|------4--------------4---------|
G|-----------8-------------------|--------------------------8----|-----------5--------------5----|
D|-------------------------------|-------------------------------|-------------------------------|
A|-------------------------------|-------------------------------|-------------------------------|
E|-------------------------------|-------------------------------|-------------------------------|

E|-6--------------6--------------|-------------------------------------------|-------------------------------------------|
B|------6--------------6---------|-------------------------------------------|-------------------------------------------|
G|-----------7--------------7----|-----------------%--------------------%----|-----------------%--------------------%----|
D|-------------------------------|-----------------%--------------------%----|-----------------%--------------------%----|
A|-------------------------------|-0---0---0---0--------0---0---0---0--------|-0---0---0---0--------0---0---0---0--------|
E|-------------------------------|-------------------------------------------|-------------------------------------------|

E|-------------------------------------------|-------------------------------------------|
B|-------------------------------------------|-------------------------------------------|
G|-----------------%--------------------%----|-----------------%--------------------%----|
D|-----------------%--------------------%----|-----------------%--------------------%----|
A|-0---0---0---0--------0---0---0---0--------|-0---0---0---0--------0---0---0---0--------|
E|-------------------------------------------|-------------------------------------------|

E|-------------------------------------------|-------------------------------------------|
B|-------------------------------------------|-------------------------------------------|
G|-----------------%--------------------%----|-----------------%--------------------%----|
D|-----------------%--------------------%----|-----------------%--------------------%----|
A|-0---0---0---0--------0---0---0---0--------|-0---0---0---0--------0---0---0---0--------|
E|-------------------------------------------|-------------------------------------------|

E|-------------------------------------------|-------------------------------------------|
B|-------------------------------------------|-------------------------------------------|
G|-----------------%--------------------%----|-----------------%--------------------%----|
D|-0---0---0---0---%----0---0---0---0---%----|-0---0---0---0---%----0---0---0---0---%----|
A|-------------------------------------------|-------------------------------------------|
E|-------------------------------------------|-------------------------------------------|

E|-------------------------------------------|-------------------------------------------|
B|-------------------------------------------|-------------------------------------------|
G|-----------------%--------------------%----|-----------------%--------------------%----|
D|-----------------%--------------------%----|-----------------%--------------------%----|
A|-------------------------------------------|-------------------------------------------|
E|-3---3---3---3--------3---3---3---3--------|-3---3---3---3--------3---3---3---3--------|

E|---------------------------------------|-------------------------------------------|
B|---------------------------------------|-------------------------------------------|
G|---------------------------------------|-----------------%--------------------%----|
D|-5---X---5----7-----5---X---5----7-----|-----------------%--------------------%----|
A|-5---X---5----7-----5---X---5----7-----|-0---0---0---0--------0---0---0---0--------|
E|---------------------------------------|-------------------------------------------|

E|-------------------------------------------|-------------------------------------------|
B|-------------------------------------------|-------------------------------------------|
G|-----------------%--------------------%----|-----------------%--------------------%----|
D|-----------------%--------------------%----|-0---0---0---0---%----0---0---0---0---%----|
A|-0---0---0---0--------0---0---0---0--------|-------------------------------------------|
E|-------------------------------------------|-------------------------------------------|

E|-------------------------------------------|-------------------------------------------|
B|-------------------------------------------|-------------------------------------------|
G|-----------------%--------------------%----|-----------------%--------------------%----|
D|-0---0---0---0---%----0---0---0---0---%----|-----------------%--------------------%----|
A|-------------------------------------------|-------------------------------------------|
E|-------------------------------------------|-3---3---3---3--------3---3---3---3--------|

E|-------------------------------------------|---------------------------------------|
B|-------------------------------------------|---------------------------------------|
G|-----------------%--------------------%----|---------------------------------------|
D|-----------------%--------------------%----|-5---X---5----7-----5---X---5----7-----|
A|-------------------------------------------|-5---X---5----7-----5---X---5----7-----|
E|-3---3---3---3--------3---3---3---3--------|---------------------------------------|

E|-------------------------------------------|-------------------------------------------|
B|-------------------------------------------|-------------------------------------------|
G|-----------------%--------------------%----|-----------------%--------------------%----|
D|-----------------%--------------------%----|-----------------%--------------------%----|
A|-0---0---0---0--------0---0---0---0--------|-0---0---0---0--------0---0---0---0--------|
E|-------------------------------------------|-------------------------------------------|

E|-------------------------------------------|-------------------------------------------|
B|-------------------------------------------|-------------------------------------------|
G|-----------------%--------------------%----|-----------------%--------------------%----|
D|-0---0---0---0---%----0---0---0---0---%----|-0---0---0---0---%----0---0---0---0---%----|
A|-------------------------------------------|-------------------------------------------|
E|-------------------------------------------|-------------------------------------------|

E|-------------------------------------------|-------------------------------------------|
B|-------------------------------------------|-------------------------------------------|
G|-----------------%--------------------%----|-----------------%--------------------%----|
D|-----------------%--------------------%----|-----------------%--------------------%----|
A|-------------------------------------------|-------------------------------------------|
E|-3---3---3---3--------3---3---3---3--------|-3---3---3---3--------3---3---3---3--------|

E|---------------------------------------|-------------------------------------------|
B|---------------------------------------|-------------------------------------------|
G|---------------------------------------|-----------------%--------------------%----|
D|-5---X---5----7-----5---X---5----7-----|-----------------%--------------------%----|
A|-5---X---5----7-----5---X---5----7-----|-0---0---0---0--------0---0---0---0--------|
E|---------------------------------------|-------------------------------------------|

E|-------------------------------------------|-------------------------------------------|
B|-------------------------------------------|-------------------------------------------|
G|-----------------%--------------------%----|-----------------%--------------------%----|
D|-----------------%--------------------%----|-0---0---0---0---%----0---0---0---0---%----|
A|-0---0---0---0--------0---0---0---0--------|-------------------------------------------|
E|-------------------------------------------|-------------------------------------------|

E|-------------------------------------------|-6--------------6--------------|-8--------------8--------------|
B|-------------------------------------------|------6--------------6---------|------8--------------8---------|
G|-----------------%--------------------%----|-----------7--------------7----|-----------9--------------9----|
D|-0---0---0---0---%----0---0---0---0---%----|-------------------------------|-------------------------------|
A|-------------------------------------------|-------------------------------|-------------------------------|
E|-------------------------------------------|-------------------------------|-------------------------------|

E|-10-------------13---10--------|-12---10--------10-------------|-6--------------6--------------|
B|------10------------------10---|-----------10--------10--------|------6--------------6---------|
G|-----------10------------------|--------------------------10---|-----------7--------------7----|
D|-------------------------------|-------------------------------|-------------------------------|
A|-------------------------------|-------------------------------|-------------------------------|
E|-------------------------------|-------------------------------|-------------------------------|

E|-8--------------8--------------|---------------------------------------|---------------------------------------|
B|------8--------------8---------|---------------------------------------|---------------------------------------|
G|-----------9--------------9----|-----------------3---5-------3----5----|-----------------3---5-------3----5----|
D|-------------------------------|-3-----5---------3---5-------3----5----|-3-----5---------3---5-------3----5----|
A|-------------------------------|-3-----5-----X-----------X-------------|-3-----5-----X-----------X-------------|
E|-------------------------------|-1-----3-------------------------------|-1-----3-------------------------------|

E|-------------------------|---------|---------|---------|---------|---------------------|
B|-------------------------|---------|---------|---------|---------|---------------------|
G|-------------2-----4-----|-5-------|-5-------|-7-------|-7-------|-9------7------9-----|
D|-3-----5-----2-----4-----|-5-------|-5-------|-7-------|-7-------|-9------7------9-----|
A|-3-----5-----0-----2-----|-3-------|-3-------|-5-------|-5-------|-7------5------7-----|
E|-1-----3-----------------|---------|---------|---------|---------|---------------------|

E|---------|---------------------|---------|---------------------|---------|---------------------|
B|---------|---------------------|---------|---------------------|---------|---------------------|
G|-9-------|-9------7------9-----|-9-------|-9------7------9-----|-9-------|-9------7------9-----|
D|-9-------|-9------7------9-----|-9-------|-9------7------9-----|-9-------|-9------7------9-----|
A|-7-------|-7------5------7-----|-7-------|-7------5------7-----|-7-------|-7------5------7-----|
E|---------|---------------------|---------|---------------------|---------|---------------------|

E|---------|-------------------------------------------|-------------------------------------------|
B|---------|-------------------------------------------|-------------------------------------------|
G|-9-------|-----------------%--------------------%----|-----------------%--------------------%----|
D|-9-------|-----------------%--------------------%----|-----------------%--------------------%----|
A|-7-------|-------------------------------------------|-------------------------------------------|
E|---------|-3---3---3---3--------3---3---3---3--------|-3---3---3---3--------3---3---3---3--------|

E|-------------------------------------------|-------------------------------------------|
B|-------------------------------------------|-------------------------------------------|
G|-----------------%--------------------%----|-----------------%--------------------%----|
D|-----------------%--------------------%----|-----------------%--------------------%----|
A|-------------------------------------------|-------------------------------------------|
E|-3---3---3---3--------3---3---3---3--------|-3---3---3---3--------3---3---3---3--------|

E|-------------------------------------------|-------------------------------------------|
B|-------------------------------------------|-------------------------------------------|
G|-----------------%--------------------%----|-----------------%--------------------%----|
D|-----------------%--------------------%----|-----------------%--------------------%----|
A|-------------------------------------------|-------------------------------------------|
E|-3---3---3---3--------3---3---3---3--------|-3---3---3---3--------3---3---3---3--------|

E|-------------------------------------------|-------------------------------------------|
B|-------------------------------------------|-------------------------------------------|
G|-----------------%--------------------%----|-----------------%--------------------%----|
D|-----------------%--------------------%----|-----------------%--------------------%----|
A|-3---3---3---3--------3---3---3---3--------|-3---3---3---3--------3---3---3---3--------|
E|-------------------------------------------|-------------------------------------------|

E|-------------------------------------------|-------------------------------------------|
B|-------------------------------------------|-------------------------------------------|
G|-----------------%--------------------%----|-----------------%--------------------%----|
D|-----------------%--------------------%----|-----------------%--------------------%----|
A|-------------------------------------------|-------------------------------------------|
E|-1---1---1---1--------1---1---1---1--------|-1---1---1---1--------1---1---1---1--------|

E|---------------------------------------|-------------------------------------------|
B|---------------------------------------|-------------------------------------------|
G|---------------------------------------|-----------------%--------------------%----|
D|-3---X---3----5-----3---X---3----5-----|-----------------%--------------------%----|
A|-3---X---3----5-----3---X---3----5-----|-------------------------------------------|
E|---------------------------------------|-3---3---3---3--------3---3---3---3--------|

E|-------------------------------------------|-------------------------------------------|
B|-------------------------------------------|-------------------------------------------|
G|-----------------%--------------------%----|-----------------%--------------------%----|
D|-----------------%--------------------%----|-----------------%--------------------%----|
A|-------------------------------------------|-3---3---3---3--------3---3---3---3--------|
E|-3---3---3---3--------3---3---3---3--------|-------------------------------------------|

E|-------------------------------------------|-------------------------------------------|
B|-------------------------------------------|-------------------------------------------|
G|-----------------%--------------------%----|-----------------%--------------------%----|
D|-----------------%--------------------%----|-----------------%--------------------%----|
A|-3---3---3---3--------3---3---3---3--------|-------------------------------------------|
E|-------------------------------------------|-1---1---1---1--------1---1---1---1--------|

E|-------------------------------------------|---------------------------------------|
B|-------------------------------------------|---------------------------------------|
G|-----------------%--------------------%----|---------------------------------------|
D|-----------------%--------------------%----|-3---X---3----5-----3---X---3----5-----|
A|-------------------------------------------|-3---X---3----5-----3---X---3----5-----|
E|-1---1---1---1--------1---1---1---1--------|---------------------------------------|

E|-------------------------------------------|-------------------------------------------|
B|-------------------------------------------|-------------------------------------------|
G|-----------------%--------------------%----|-----------------%--------------------%----|
D|-----------------%--------------------%----|-----------------%--------------------%----|
A|-------------------------------------------|-------------------------------------------|
E|-3---3---3---3--------3---3---3---3--------|-3---3---3---3--------3---3---3---3--------|

E|-------------------------------------------|-------------------------------------------|
B|-------------------------------------------|-------------------------------------------|
G|-----------------%--------------------%----|-----------------%--------------------%----|
D|-----------------%--------------------%----|-----------------%--------------------%----|
A|-3---3---3---3--------3---3---3---3--------|-3---3---3---3--------3---3---3---3--------|
E|-------------------------------------------|-------------------------------------------|

E|-------------------------------------------|-------------------------------------------|
B|-------------------------------------------|-------------------------------------------|
G|-----------------%--------------------%----|-----------------%--------------------%----|
D|-----------------%--------------------%----|-----------------%--------------------%----|
A|-------------------------------------------|-------------------------------------------|
E|-1---1---1---1--------1---1---1---1--------|-1---1---1---1--------1---1---1---1--------|

E|---------------------------------------|-------------------------------------------|
B|---------------------------------------|-------------------------------------------|
G|---------------------------------------|-----------------%--------------------%----|
D|-3---X---3----5-----3---X---3----5-----|-----------------%--------------------%----|
A|-3---X---3----5-----3---X---3----5-----|-------------------------------------------|
E|---------------------------------------|-3---3---3---3--------3---3---3---3--------|

E|-------------------------------------------|-------------------------------------------|
B|-------------------------------------------|-------------------------------------------|
G|-----------------%--------------------%----|-----------------%--------------------%----|
D|-----------------%--------------------%----|-----------------%--------------------%----|
A|-------------------------------------------|-3---3---3---3--------3---3---3---3--------|
E|-3---3---3---3--------3---3---3---3--------|-------------------------------------------|

E|-------------------------------------------|-4--------------4--------------|-6--------------6--------------|
B|-------------------------------------------|------4--------------4---------|------6--------------6---------|
G|-----------------%--------------------%----|-----------5--------------5----|-----------7--------------7----|
D|-----------------%--------------------%----|-------------------------------|-------------------------------|
A|-3---3---3---3--------3---3---3---3--------|-------------------------------|-------------------------------|
E|-------------------------------------------|-------------------------------|-------------------------------|

E|-8--------------11---8---------|-10---8---------8--------------|-4--------------4--------------|
B|------8-------------------8----|-----------8---------8---------|------4--------------4---------|
G|-----------8-------------------|--------------------------8----|-----------5--------------5----|
D|-------------------------------|-------------------------------|-------------------------------|
A|-------------------------------|-------------------------------|-------------------------------|
E|-------------------------------|-------------------------------|-------------------------------|

E|-6--------------6--------------|-------------------------------------------|
B|------6--------------6---------|-------------------------------------------|
G|-----------7--------------7----|-----------------%--------------------%----|
D|-------------------------------|-----------------%--------------------%----|
A|-------------------------------|-0---0---0---0--------0---0---0---0--------|
E|-------------------------------|-------------------------------------------|
Iron Maiden - King Of Twilight
Iron Maiden - King Of Twilight.gp3