Iron Maiden - Lightning Strikes Twice

Iron Maiden



Title: Lightning Strikes Twice
Album: Virtual XI
Artist: Iron Maiden
Author: 

Track 1: Dist. Guitar 1
E|-----------------------|-----------------------|-----------------------|-------------------|
B|-----------------------|-----------------------|-----------------------|-------------------|
G|-------------6----7----|-------------6----7----|-9-----9-----7----9----|-11----9-----7-----|
D|-9-----9---------------|-9-----9---------------|-----------------------|-------------------|
A|-----------------------|-----------------------|-----------------------|-------------------|
E|-----------------------|-----------------------|-----------------------|-------------------|

E|-----------------------|-----------------------|-----------------------|-----------------------------|
B|-----------------------|-----------------------|-----------------------|-----------------------------|
G|-------------6----7----|-------------6----7----|-9-----9-----7----9----|-11----9---11--9---7---6-----|
D|-9-----9---------------|-9-----9---------------|-----------------------|-----------------------------|
A|-----------------------|-----------------------|-----------------------|-----------------------------|
E|-----------------------|-----------------------|-----------------------|-----------------------------|

E|-----------------------|-----------------------|-----------------------|-------------------|
B|-----------------------|-----------------------|-----------------------|-------------------|
G|-------------6----7----|-7-----7-----6----7----|-7-----7-----6----7----|-7-----6-----------|
D|-9-----9---------------|-----------------------|-----------------------|-------------8-----|
A|-----------------------|-----------------------|-----------------------|-------------------|
E|-----------------------|-----------------------|-----------------------|-------------------|

E|-----------------------|-----------------------|-------------------|---------|-----------------------|
B|-----------------------|-----------------------|-------------------|---------|-----------------------|
G|-------------6----7----|-7-----7-----6----7----|-9-----7-----4-----|-6-------|-------------6----7----|
D|-9-----9---------------|-----------------------|-------------------|---------|-9-----9---------------|
A|-----------------------|-----------------------|-------------------|---------|-----------------------|
E|-----------------------|-----------------------|-------------------|---------|-----------------------|

E|-----------------------|-----------------------|-------------------|-----------------------|
B|-----------------------|-----------------------|-------------------|-----------------------|
G|-7-----7-----6----7----|-7-----7-----6----7----|-7-----6-----------|-------------6----7----|
D|-----------------------|-----------------------|-------------8-----|-9-----9---------------|
A|-----------------------|-----------------------|-------------------|-----------------------|
E|-----------------------|-----------------------|-------------------|-----------------------|

E|-----------------------|-------------------|---------|--------------|--------------|
B|-----------------------|-------------------|---------|--------------|--------------|
G|-7-----7-----6----7----|-9-----7-----9-----|-11------|-%------%-----|-%------%-----|
D|-----------------------|-------------------|---------|-%------%-----|-%------%-----|
A|-----------------------|-------------------|---------|--------------|--------------|
E|-----------------------|-------------------|---------|--------------|--------------|

E|--------------|--------------|--------------|--------------|--------------|--------------|
B|--------------|--------------|--------------|--------------|--------------|--------------|
G|-%------%-----|-%------%-----|-%------%-----|-%------%-----|-%------%-----|-%------%-----|
D|-%------%-----|-%------%-----|-%------%-----|-%------%-----|-%------%-----|-%------%-----|
A|--------------|--------------|--------------|--------------|--------------|--------------|
E|--------------|--------------|--------------|--------------|--------------|--------------|

E|--------------|--------------|--------------|--------------|--------------|--------------|
B|--------------|--------------|--------------|--------------|--------------|--------------|
G|-%------%-----|-%------%-----|-%------%-----|-%------%-----|-%------%-----|-%------%-----|
D|-%------%-----|-%------%-----|-%------%-----|-%------%-----|-%------%-----|-%------%-----|
A|--------------|--------------|--------------|--------------|--------------|--------------|
E|--------------|--------------|--------------|--------------|--------------|--------------|

E|--------------|--------------|-------------------------------|-------------------------------|
B|--------------|--------------|-------------------------------|-------------------------------|
G|-%------%-----|-%------%-----|-4----4----4----4----4----%----|--------------------------%----|
D|-%------%-----|-%------%-----|-4----4----4----4----4----%----|-5----5----5----5----5----%----|
A|--------------|--------------|-2----2----2----2----2---------|-5----5----5----5----5---------|
E|--------------|--------------|-------------------------------|-3----3----3----3----3---------|

E|-------------------------------|-------------------------------|-------------------------------|
B|-------------------------------|-------------------------------|-------------------------------|
G|--------------------------%----|--------------------------%----|-4----4----4----4----4----%----|
D|-2----2----2----2----2----%----|-4----4----4----4----4----%----|-4----4----4----4----4----%----|
A|-2----2----2----2----2---------|-4----4----4----4----4---------|-2----2----2----2----2---------|
E|-0----0----0----0----0---------|-2----2----2----2----2---------|-------------------------------|

E|-------------------------------|-------------------------------|-------------------------------|
B|-------------------------------|-------------------------------|-------------------------------|
G|--------------------------%----|--------------------------%----|--------------------------%----|
D|-5----5----5----5----5----%----|-2----2----2----2----2----%----|-4----4----4----4----4----%----|
A|-5----5----5----5----5---------|-2----2----2----2----2---------|-4----4----4----4----4---------|
E|-3----3----3----3----3---------|-0----0----0----0----0---------|-2----2----2----2----2---------|

E|-------------------------------|-------------------------------|-------------------------------|
B|-------------------------------|-------------------------------|-------------------------------|
G|-4----4----4----4----4----%----|--------------------------%----|--------------------------%----|
D|-4----4----4----4----4----%----|-5----5----5----5----5----%----|-2----2----2----2----2----%----|
A|-2----2----2----2----2---------|-5----5----5----5----5---------|-2----2----2----2----2---------|
E|-------------------------------|-3----3----3----3----3---------|-0----0----0----0----0---------|

E|-------------------------------|-------------------------------|-------------------------------|
B|-------------------------------|-------------------------------|-------------------------------|
G|--------------------------%----|-4----4----4----4----4----%----|--------------------------%----|
D|-4----4----4----4----4----%----|-4----4----4----4----4----%----|-5----5----5----5----5----%----|
A|-4----4----4----4----4---------|-2----2----2----2----2---------|-5----5----5----5----5---------|
E|-2----2----2----2----2---------|-------------------------------|-3----3----3----3----3---------|

E|-------------------------------|-------------------------------|-----------------------|
B|-------------------------------|-------------------------------|-----------------------|
G|--------------------------%----|--------------------------%----|-------------7----9----|
D|-2----2----2----2----2----%----|-4----4----4----4----4----%----|-9-----9---------------|
A|-2----2----2----2----2---------|-4----4----4----4----4---------|-----------------------|
E|-0----0----0----0----0---------|-2----2----2----2----2---------|-----------------------|

E|-----------------------|-----------------------|-------------------|-----------------------|
B|-----------------------|-----------------------|-------------------|-----------------------|
G|-7-----7-----7----6----|-----------------------|-------------------|-------------7----9----|
D|-----------------------|-9-----9-----9----7----|-5-----4-----4-----|-9-----9---------------|
A|-----------------------|-----------------------|-------------------|-----------------------|
E|-----------------------|-----------------------|-------------------|-----------------------|

E|-----------------------|-------------------|-------------------|-----------------------|
B|-----------------------|-------------------|-------------------|-----------------------|
G|-7-----7-----7----6----|-------------------|-------------------|-------------7----9----|
D|-----------------------|-9-----7-----5-----|-4-----4-----4-----|-9-----9---------------|
A|-----------------------|-------------------|-------------------|-----------------------|
E|-----------------------|-------------------|-------------------|-----------------------|

E|-----------------------|-----------------------|-------------------|-----------------------|
B|-----------------------|-----------------------|-------------------|-----------------------|
G|-7-----7-----7----6----|-----------------------|-------------------|-------------7----9----|
D|-----------------------|-9-----9-----9----7----|-5-----4-----2-----|-9-----9---------------|
A|-----------------------|-----------------------|-------------------|-----------------------|
E|-----------------------|-----------------------|-------------------|-----------------------|

E|-----------------------|-------------------|-------------------|-------------------------------|
B|-----------------------|-------------------|-------------------|-------------------------------|
G|-7-----7-----7----6----|-------------------|-------------------|-4----4----4----4----4----%----|
D|-----------------------|-9-----7-----5-----|-4-----4-----4-----|-4----4----4----4----4----%----|
A|-----------------------|-------------------|-------------------|-2----2----2----2----2---------|
E|-----------------------|-------------------|-------------------|-------------------------------|

E|-------------------------------|-------------------------------|-------------------------------|
B|-------------------------------|-------------------------------|-------------------------------|
G|--------------------------%----|--------------------------%----|--------------------------%----|
D|-5----5----5----5----5----%----|-2----2----2----2----2----%----|-4----4----4----4----4----%----|
A|-5----5----5----5----5---------|-2----2----2----2----2---------|-4----4----4----4----4---------|
E|-3----3----3----3----3---------|-0----0----0----0----0---------|-2----2----2----2----2---------|

E|-------------------------------|-------------------------------|-------------------------------|
B|-------------------------------|-------------------------------|-------------------------------|
G|-4----4----4----4----4----%----|--------------------------%----|--------------------------%----|
D|-4----4----4----4----4----%----|-5----5----5----5----5----%----|-2----2----2----2----2----%----|
A|-2----2----2----2----2---------|-5----5----5----5----5---------|-2----2----2----2----2---------|
E|-------------------------------|-3----3----3----3----3---------|-0----0----0----0----0---------|

E|-------------------------------|-------------------------------|-------------------------------|
B|-------------------------------|-------------------------------|-------------------------------|
G|--------------------------%----|-4----4----4----4----4----%----|--------------------------%----|
D|-4----4----4----4----4----%----|-4----4----4----4----4----%----|-5----5----5----5----5----%----|
A|-4----4----4----4----4---------|-2----2----2----2----2---------|-5----5----5----5----5---------|
E|-2----2----2----2----2---------|-------------------------------|-3----3----3----3----3---------|

E|-------------------------------|-------------------------------|-------------------------------|
B|-------------------------------|-------------------------------|-------------------------------|
G|--------------------------%----|--------------------------%----|-4----4----4----4----4----%----|
D|-2----2----2----2----2----%----|-4----4----4----4----4----%----|-4----4----4----4----4----%----|
A|-2----2----2----2----2---------|-4----4----4----4----4---------|-2----2----2----2----2---------|
E|-0----0----0----0----0---------|-2----2----2----2----2---------|-------------------------------|

E|-------------------------------|-------------------------------|-------------------------------|
B|-------------------------------|-------------------------------|-------------------------------|
G|--------------------------%----|--------------------------%----|--------------------------%----|
D|-5----5----5----5----5----%----|-2----2----2----2----2----%----|-4----4----4----4----4----%----|
A|-5----5----5----5----5---------|-2----2----2----2----2---------|-4----4----4----4----4---------|
E|-3----3----3----3----3---------|-0----0----0----0----0---------|-2----2----2----2----2---------|

E|-----------------------------------------|-----------------------------------------|
B|-----------------------------------------|-----------------------------------------|
G|---------------------%---------%---------|---------------------%---------%---------|
D|-4----4----4----4----%----4----%---------|-4----4----4----4----%----4----%---------|
A|-2----2----0----2---------2---------0----|-2----2----0----2---------2---------0----|
E|-----------------------------------------|-----------------------------------------|

E|-----------------------------------------|-----------------------------------------|
B|-----------------------------------------|-----------------------------------------|
G|---------------------%---------%---------|----------------%-------------------%----|
D|-4----4----4----4----%----4----%---------|-5----5----5----%----2----2----2----%----|
A|-2----2----0----2---------2---------0----|-5----5----5---------2----2----2---------|
E|-----------------------------------------|-3----3----3---------0----0----0---------|

E|-----------------------------------------|-----------------------------------------|
B|-----------------------------------------|-----------------------------------------|
G|---------------------%---------%---------|---------------------%---------%---------|
D|-4----4----4----4----%----4----%---------|-4----4----4----4----%----4----%---------|
A|-2----2----0----2---------2---------0----|-2----2----0----2---------2---------0----|
E|-----------------------------------------|-----------------------------------------|

E|-----------------------------------------|-----------------------------------------|
B|-----------------------------------------|-----------------------------------------|
G|---------------------%---------%---------|----------------%-------------------%----|
D|-4----4----4----4----%----4----%---------|-5----5----5----%----2----2----2----%----|
A|-2----2----0----2---------2---------0----|-5----5----5---------2----2----2---------|
E|-----------------------------------------|-3----3----3---------0----0----0---------|

E|-----------------------------------------|-----------------------------------------|
B|-----------------------------------------|-----------------------------------------|
G|---------------------%---------%---------|---------------------%---------%---------|
D|-4----4----4----4----%----4----%---------|-4----4----4----4----%----4----%---------|
A|-2----2----0----2---------2---------0----|-2----2----0----2---------2---------0----|
E|-----------------------------------------|-----------------------------------------|

E|-----------------------------------------|-----------------------------------------|
B|-----------------------------------------|-----------------------------------------|
G|----------------%-------------------%----|---------------------%---------%---------|
D|-5----5----5----%----2----2----2----%----|-4----4----4----4----%----4----%---------|
A|-5----5----5---------2----2----2---------|-2----2----0----2---------2---------0----|
E|-3----3----3---------0----0----0---------|-----------------------------------------|

E|-----------------------------------------|-----------------------------------------|
B|-----------------------------------------|-----------------------------------------|
G|---------------------%---------%---------|---------------------%---------%---------|
D|-4----4----4----4----%----4----%---------|-4----4----4----4----%----4----%---------|
A|-2----2----0----2---------2---------0----|-2----2----0----2---------2---------0----|
E|-----------------------------------------|-----------------------------------------|

E|-----------------------------------------|-----------------------------------------|
B|-----------------------------------------|-----------------------------------------|
G|----------------%-------------------%----|-2----2---------2----%----2----%---------|
D|-5----5----5----%----2----2----2----%----|-2----2---------2----%----2----%---------|
A|-5----5----5---------2----2----2---------|-0----0---------0---------0---------0----|
E|-3----3----3---------0----0----0---------|-----------3-----------------------------|

E|-----------------------------------------|-----------------------------------------|
B|-----------------------------------------|-----------------------------------------|
G|----------------%-------------------%----|---------------------%---------%---------|
D|-5----5----5----%----2----2----2----%----|-4----4----4----4----%----4----%---------|
A|-5----5----5---------2----2----2---------|-2----2----0----2---------2---------0----|
E|-3----3----3---------0----0----0---------|-----------------------------------------|

E|-----------------------------------------|-----------------------------------------|
B|-----------------------------------------|-----------------------------------------|
G|---------------------%---------%---------|-----------------------------------------|
D|-4----4----4----4----%----4----%---------|-----------------------------------------|
A|-2----2----0----2---------2---------0----|-5----5----5----5----5----5----5----5----|
E|-----------------------------------------|-3----3----3----3----3----3----3----3----|

E|-----------------------------------------|-----------------------------------------|
B|-----------------------------------------|-----------------------------------------|
G|-----------------------------------------|---------------------%---------%---------|
D|-----------------------------------------|-4----4----4----4----%----4----%---------|
A|-2----2----2----2----2----2----2----2----|-2----2----0----2---------2---------0----|
E|-0----0----0----0----0----0----0----0----|-----------------------------------------|

E|-----------------------------------------|-----------------------------------------|
B|-----------------------------------------|-----------------------------------------|
G|---------------------%---------%---------|---------------------%---------%---------|
D|-4----4----4----4----%----4----%---------|-4----4----4----4----%----4----%---------|
A|-2----2----0----2---------2---------0----|-2----2----0----2---------2---------0----|
E|-----------------------------------------|-----------------------------------------|

E|-----------------------------------------|-----------------------------------------|
B|-----------------------------------------|-----------------------------------------|
G|---------------------%---------%---------|----------------%-------------------%----|
D|-4----4----4----4----%----4----%---------|-5----5----5----%----2----2----2----%----|
A|-2----2----0----2---------2---------0----|-5----5----5---------2----2----2---------|
E|-----------------------------------------|-3----3----3---------0----0----0---------|

E|-----------------------------------------|-----------------------------------------|
B|-----------------------------------------|-----------------------------------------|
G|---------------------%---------%---------|---------------------%---------%---------|
D|-4----4----4----4----%----4----%---------|-4----4----4----4----%----4----%---------|
A|-2----2----0----2---------2---------0----|-2----2----0----2---------2---------0----|
E|-----------------------------------------|-----------------------------------------|

E|-----------------------------------------|-----------------------------------------|
B|-----------------------------------------|-----------------------------------------|
G|---------------------%---------%---------|----------------%-------------------%----|
D|-4----4----4----4----%----4----%---------|-5----5----5----%----2----2----2----%----|
A|-2----2----0----2---------2---------0----|-5----5----5---------2----2----2---------|
E|-----------------------------------------|-3----3----3---------0----0----0---------|

E|-----------------------------------------|-----------------------------------------|
B|-----------------------------------------|-----------------------------------------|
G|-2----2---------2----%----2----%---------|----------------%-------------------%----|
D|-2----2---------2----%----2----%---------|-5----5----5----%----2----2----2----%----|
A|-0----0---------0---------0---------0----|-5----5----5---------2----2----2---------|
E|-----------3-----------------------------|-3----3----3---------0----0----0---------|

E|-----------------------------------------|-----------------------------------------|
B|-----------------------------------------|-----------------------------------------|
G|---------------------%---------%---------|---------------------%---------%---------|
D|-4----4----4----4----%----4----%---------|-4----4----4----4----%----4----%---------|
A|-2----2----0----2---------2---------0----|-2----2----0----2---------2---------0----|
E|-----------------------------------------|-----------------------------------------|

E|-----------------------------------------|-----------------------------------------|
B|-----------------------------------------|-----------------------------------------|
G|-----------------------------------------|-----------------------------------------|
D|-----------------------------------------|-----------------------------------------|
A|-5----5----5----5----5----5----5----5----|-2----2----2----2----2----2----2----2----|
E|-3----3----3----3----3----3----3----3----|-0----0----0----0----0----0----0----0----|

E|-----------------------------------------|-----------------------------------------|
B|-----------------------------------------|-----------------------------------------|
G|---------------------%---------%---------|---------------------%---------%---------|
D|-4----4----4----4----%----4----%---------|-4----4----4----4----%----4----%---------|
A|-2----2----0----2---------2---------0----|-2----2----0----2---------2---------0----|
E|-----------------------------------------|-----------------------------------------|

E|-----------------------------------------|-----------------------------------------|
B|-----------------------------------------|-----------------------------------------|
G|-----------------------------------------|-----------------------------------------|
D|-----------------------------------------|-----------------------------------------|
A|-5----5----5----5----5----5----5----5----|-2----2----2----2----2----2----2----2----|
E|-3----3----3----3----3----3----3----3----|-0----0----0----0----0----0----0----0----|

E|-----------------------------------------|-----------------------------------------|
B|-----------------------------------------|-----------------------------------------|
G|-----------------------------------------|-----------------------------------------|
D|-----------------------------------------|-----------------------------------------|
A|-4----4----4----4----4----4----4----4----|-4----4----4----4----4----4----4----4----|
E|-2----2----2----2----2----2----2----2----|-2----2----2----2----2----2----2----2----|

E|-7------5------------|-----------------------------|-7------5------------|-----------------------------|
B|---------------7-----|-7----5------3---------------|---------------7-----|-7----5------3---------------|
G|---------------------|------------------4----4-----|---------------------|------------------4----4-----|
D|---------------------|-----------------------------|---------------------|-----------------------------|
A|---------------------|-----------------------------|---------------------|-----------------------------|
E|---------------------|-----------------------------|---------------------|-----------------------------|

E|-7------5------------|-----------------------------|-7------5------------|-----------------------------|
B|---------------7-----|-7----5------3---------------|---------------7-----|-7----5------3---------------|
G|---------------------|------------------4----4-----|---------------------|------------------4----4-----|
D|---------------------|-----------------------------|---------------------|-----------------------------|
A|---------------------|-----------------------------|---------------------|-----------------------------|
E|---------------------|-----------------------------|---------------------|-----------------------------|

E|-7------5------------|-----------------------------|-7------5------------|-----------------------------|
B|---------------7-----|-7----5------3---------------|---------------7-----|-7----5------3---------------|
G|---------------------|------------------4----4-----|---------------------|------------------4----4-----|
D|---------------------|-----------------------------|---------------------|-----------------------------|
A|---------------------|-----------------------------|---------------------|-----------------------------|
E|---------------------|-----------------------------|---------------------|-----------------------------|

E|-7------5------------|-----------------------------|-7------5------------|-----------------------------|
B|---------------7-----|-7----5------3---------------|---------------7-----|-7----5------3---------------|
G|---------------------|------------------4----4-----|---------------------|------------------4----4-----|
D|---------------------|-----------------------------|---------------------|-----------------------------|
A|---------------------|-----------------------------|---------------------|-----------------------------|
E|---------------------|-----------------------------|---------------------|-----------------------------|

E|-7------5------------|-----------------------------|-7------5------------|------------------5----5--------14--|
B|---------------7-----|-7----5------3---------------|---------------7-----|-7----5------7--------------15------|
G|---------------------|------------------4----4-----|---------------------|------------------------------------|
D|---------------------|-----------------------------|---------------------|------------------------------------|
A|---------------------|-----------------------------|---------------------|------------------------------------|
E|---------------------|-----------------------------|---------------------|------------------------------------|

E|-19----14--15--14--15--------------------------------|--------------------------------------------------------|
B|-----------------------14--15--14--15---14--15-------|-14--15--14-------14--15--14------------14--15--14------|
G|------------------------------------------------16---|-------------14---------------16---14---------------16--|
D|-----------------------------------------------------|--------------------------------------------------------|
A|-----------------------------------------------------|--------------------------------------------------------|
E|-----------------------------------------------------|--------------------------------------------------------|

E|---------------------------------------------------------|-----------------------------------------|
B|-14--15--14----------------------------------------------|-------------------------------10---12---|
G|-------------16--14---16---14---14--12--14--12-----------|---------------------9----12-------------|
D|------------------------------------------------14--12---|-9----7----9----12-----------------------|
A|---------------------------------------------------------|-----------------------------------------|
E|---------------------------------------------------------|-----------------------------------------|

E|-9---10--9---10--9---10----------------------14---15---|-17-----17----17----14--15--14--|
B|------------------------------14---15---17-------------|--------------------------------|
G|-------------------------16----------------------------|--------------------------------|
D|-------------------------------------------------------|--------------------------------|
A|-------------------------------------------------------|--------------------------------|
E|-------------------------------------------------------|--------------------------------|

E|-14--15--14--12--14--15--14--12------14--15--14--12------------------|----------------------------14---|
B|---------------------------------15------------------14--15--14--12--|-14----14---12---12----12--------|
G|---------------------------------------------------------------------|---------------------------------|
D|---------------------------------------------------------------------|---------------------------------|
A|---------------------------------------------------------------------|---------------------------------|
E|---------------------------------------------------------------------|---------------------------------|

E|-14---13---12----------------------------|-----------------------------------------|
B|----------------14---13---12-------------|-----------------------------------------|
G|-------------------------------14---13---|-12--------------------------------------|
D|-----------------------------------------|------14---13---12-----------------------|
A|-----------------------------------------|---------------------14---13---12--------|
E|-----------------------------------------|------------------------------------14---|

E|------------------------------------------|-------------------------------------------|
B|------------------------------------------|-------------------------------------------|
G|------------------------------------------|-------------------11--11--11--11--11--11--|
D|---------------------12---14----12---14---|-14----14----14----------------------------|
A|-----------12---14------------------------|-------------------------------------------|
E|-13---12----------------------------------|-------------------------------------------|

E|-------------------------------------------------------------------------------------------------|
B|-------------------------------------------------------------------------------------------------|
G|-11--11--11--11--11--11--11--11--11--12--12--12--12--12--12--12--12--12--13--13--13--14--14--14--|
D|-------------------------------------------------------------------------------------------------|
A|-------------------------------------------------------------------------------------------------|
E|-------------------------------------------------------------------------------------------------|

E|------------------------------------------------------17--19--17--19--17--19--|-17--19--17---19-----------|
B|------------------------------------------------------------------------------|---------------------17----|
G|-15--15--15--16--16--16--17--17--17--17--17--17--19---------------------------|---------------------------|
D|------------------------------------------------------------------------------|---------------------------|
A|------------------------------------------------------------------------------|---------------------------|
E|------------------------------------------------------------------------------|---------------------------|

E|---------|-----------------------------------------------------------------|-----------------------------------------------------------------|
B|-17------|-----------------------------------------------------------------|-----------------------------------------------------------------|
G|---------|-4---2---0---2---4---2---0---2---4---2---0---2---4---2---0---2---|-4---2---0---2---4---2---0---2---4---2---0---2---4---2---0---2---|
D|---------|-----------------------------------------------------------------|-----------------------------------------------------------------|
A|---------|-----------------------------------------------------------------|-----------------------------------------------------------------|
E|---------|-----------------------------------------------------------------|-----------------------------------------------------------------|

E|-----------------------------------------------|---------------------|-----------------------------------------|
B|-----------------------------------------------|---------------------|-----------------------------------------|
G|-7-----7---------------------------------------|---------------------|-----------------------------------------|
D|------------9----7----9----7-------------------|--------2-----2------|-4----4----4----4----4----4----4----4----|
A|--------------------------------7--------------|---------------------|-----------------------------------------|
E|-------------------------------------7----7----|-7-------------------|-----------------------------------------|

E|---------------------------------|---------------------------------|-7-----9----10---12----10---9----|
B|---------------------------------|-10----8---------8---------------|-10------------------------------|
G|---------------------------------|------------9---------9----9-----|---------------------------------|
D|-2-----0---------0---------------|---------------------------------|---------------------------------|
A|------------2---------2----2-----|---------------------------------|---------------------------------|
E|---------------------------------|---------------------------------|---------------------------------|

E|-7--------------7----7-----7----7----|-10---12---10---9----7------|-7------7-----------|
B|------7----0-------------------------|----------------------------|--------------------|
G|--------------------------------4----|-7----9----7----6----4------|-4------4------%----|
D|-------------------------------------|----------------------------|---------------%----|
A|-------------------------------------|----------------------------|--------------------|
E|-------------------------------------|----------------------------|--------------------|

E|-10---12---10---9---------7----7-----|-7------7------7----|-10---12---10---9----7------|
B|-------------------------------------|--------------------|----------------------------|
G|-7----9----7----6----%----4----4-----|-4------4------4----|-7----9----7----6----4------|
D|---------------------%---------------|--------------------|----------------------------|
A|-------------------------------------|--------------------|----------------------------|
E|-------------------------------------|--------------------|----------------------------|

E|-7------7-----------|-10---12---10---9---------7----7-----|-7------7------7----|-10---12---10---9----7------|
B|--------------------|-------------------------------------|--------------------|----------------------------|
G|-4------4------%----|-7----9----7----6----%----4----4-----|-4------4------4----|-7----9----7----6----4------|
D|---------------%----|---------------------%---------------|--------------------|----------------------------|
A|--------------------|-------------------------------------|--------------------|----------------------------|
E|--------------------|-------------------------------------|--------------------|----------------------------|

E|-7------7-----------|-10---12---10---9---------7----7-----|-7------7------7----|-10---12---10---9----7------|
B|--------------------|-------------------------------------|--------------------|----------------------------|
G|-4------4------%----|-7----9----7----6----%----4----4-----|-4------4------4----|-7----9----7----6----4------|
D|---------------%----|---------------------%---------------|--------------------|----------------------------|
A|--------------------|-------------------------------------|--------------------|----------------------------|
E|--------------------|-------------------------------------|--------------------|----------------------------|

E|-7------7-----------|-10---12---10---9---------7----7-----|-7-------|-----------------------------------------|
B|--------------------|-------------------------------------|---------|-----------------------------------------|
G|-4------4------%----|-7----9----7----6----%----4----4-----|-4-------|-----------------------------------------|
D|---------------%----|---------------------%---------------|---------|-----------------------------------------|
A|--------------------|-------------------------------------|---------|-5----5----5----5----5----5----5----5----|
E|--------------------|-------------------------------------|---------|-3----3----3----3----3----3----3----3----|

E|-----------------------------------------|-----------------------------------------|
B|-----------------------------------------|-----------------------------------------|
G|-----------------------------------------|---------------------%---------%---------|
D|-----------------------------------------|-4----4----4----4----%----4----%---------|
A|-2----2----2----2----2----2----2----2----|-2----2----0----2---------2---------0----|
E|-0----0----0----0----0----0----0----0----|-----------------------------------------|

E|-----------------------------------------|-----------------------------------------|
B|-----------------------------------------|-----------------------------------------|
G|---------------------%---------%---------|-----------------------------------------|
D|-4----4----4----4----%----4----%---------|-----------------------------------------|
A|-2----2----0----2---------2---------0----|-5----5----5----5----5----5----5----5----|
E|-----------------------------------------|-3----3----3----3----3----3----3----3----|

E|-----------------------------------------|-----------------------------------------|
B|-----------------------------------------|-----------------------------------------|
G|-----------------------------------------|-----------------------------------------|
D|-----------------------------------------|-----------------------------------------|
A|-2----2----2----2----2----2----2----2----|-4----4----4----4----4----4----4----4----|
E|-0----0----0----0----0----0----0----0----|-2----2----2----2----2----2----2----2----|

E|-----------------------------------------|-7------5------------|---------------------------------|
B|-----------------------------------------|---------------7-----|-7----5------3-------------------|
G|-----------------------------------------|---------------------|------------------4----4----4----|
D|-----------------------------------------|---------------------|---------------------------------|
A|-4----4----4----4----4----4----4----4----|---------------------|---------------------------------|
E|-2----2----2----2----2----2----2----2----|---------------------|---------------------------------|

E|-7------5------------|---------------------------------|-7------5------------|---------------------------------|
B|---------------7-----|-7----5------3-------------------|---------------7-----|-7----5------3-------------------|
G|---------------------|------------------4----4----4----|---------------------|------------------4----4----4----|
D|---------------------|---------------------------------|---------------------|---------------------------------|
A|---------------------|---------------------------------|---------------------|---------------------------------|
E|---------------------|---------------------------------|---------------------|---------------------------------|

E|-7------5------------|---------------------------------|-7------5------------|---------------------------------|
B|---------------7-----|-7----5------3-------------------|---------------7-----|-7----5------3-------------------|
G|---------------------|------------------4----4----4----|---------------------|------------------4----4----4----|
D|---------------------|---------------------------------|---------------------|---------------------------------|
A|---------------------|---------------------------------|---------------------|---------------------------------|
E|---------------------|---------------------------------|---------------------|---------------------------------|

E|-7------5------------|---------------------------------|-7------5------------|---------------------------------|
B|---------------7-----|-7----5------3-------------------|---------------7-----|-7----5------3-------------------|
G|---------------------|------------------4----4----4----|---------------------|------------------4----4----4----|
D|---------------------|---------------------------------|---------------------|---------------------------------|
A|---------------------|---------------------------------|---------------------|---------------------------------|
E|---------------------|---------------------------------|---------------------|---------------------------------|

E|-7------5------------|---------------------------------|-7------5------------|---------------------------------|
B|---------------7-----|-7----5------3-------------------|---------------7-----|-7----5------3-------------------|
G|---------------------|------------------4----4----4----|---------------------|------------------4----4----4----|
D|---------------------|---------------------------------|---------------------|---------------------------------|
A|---------------------|---------------------------------|---------------------|---------------------------------|
E|---------------------|---------------------------------|---------------------|---------------------------------|

E|-7------5------------|------------------5----5-----|-----------------------------------------|
B|---------------7-----|-7----5------7---------------|-----------------------------------------|
G|---------------------|-----------------------------|---------------------%---------%---------|
D|---------------------|-----------------------------|-4----4----4----4----%----4----%---------|
A|---------------------|-----------------------------|-2----2----0----2---------2---------0----|
E|---------------------|-----------------------------|-----------------------------------------|

E|-----------------------------------------|-----------------------------------------|
B|-----------------------------------------|-----------------------------------------|
G|---------------------%---------%---------|---------------------%---------%---------|
D|-4----4----4----4----%----4----%---------|-4----4----4----4----%----4----%---------|
A|-2----2----0----2---------2---------0----|-2----2----0----2---------2---------0----|
E|-----------------------------------------|-----------------------------------------|

E|---------------------------------|
B|---------------------------------|
G|---------------------------%-----|
D|-4----4----4----4----4-----%-----|
A|-2----2----0----2----2-----------|
E|---------------------------------|
Iron Maiden - Lightning Strikes Twice
Iron Maiden - Lightning Strikes Twice.gp3