Iron Maiden - Look For The Truth

Iron Maiden



Title: Look For The Truth
Album: The X Factor
Artist: Iron Maiden
Author: Iron Maiden

Track 1: Clean (Intro)
E|-----------------------------------------------------------------|-------------------------------------------------3---------------|
B|-----------------------------------------------------------------|-----------------------------------------------------3-----------|
G|-----------------0-------------------------------0---------------|-----------------0---------------------------0-----------0-------|
D|---------2---------------2---------------2---------------2-------|---------2---------------2---------------0-------------------0---|
A|-----2-------2-------2-------2-------2-------2-------2-------2---|-----2-------2-------2-------0-------2---------------------------|
E|-0-------------------------------0-------------------------------|-0-------------------------------3-------------------------------|

E|-------------3---2-----------------------------------------------|-----------------------------------------------------------------|
B|---------3-----------3---------------------------3---------------|-----------------0-------------------------------0---------------|
G|-----2-------------------2---------------0---------------0-------|---------5---------------5---------------7---------------7-------|
D|-0---------------------------0-------4-------4-------4-------X---|-----5-------5-------5---------------7-------7-------7-------0---|
A|---------------------------------2-------------------------------|-3---------------------------3---5-------------------------------|
E|-----------------------------------------------------------------|-----------------------------------------------------------------|

E|-----------------0-----------------------------------------------|-----------------0-------------------------------3---------------|
B|---------------------0---------------------------9---------------|---------------------0-------------------------------3-----------|
G|---------9---------------9---------------9---------------9---0---|-------------0-------------------------------0-----------0-------|
D|-----9-------9---------------9-------9-------9-------9-------0---|---------2---------------2---0-----------0-------------------0---|
A|-7-------------------------------7-------------------------------|-----2-------------------------------2---------------------------|
E|-----------------------------------------------------------------|-0-------------------------------3-------------------------------|

E|-------------3---2-----------------------------------------------|-----------------0-------------------------------0---------------|
B|---------3-----------3---------------------------3---------------|-------------0-------0-----------------------0-------0-----------|
G|-----2-------------------2---0-----------0---------------0-------|---------5---------------5---------------7---------------7-------|
D|-0-----------------------------------4-------4-------4-------X---|-----X-----------------------5-------7-----------------------X---|
A|---------------------------------2-------------------------------|-3-------------------------------5-------------------------------|
E|-----------------------------------------------------------------|-----------------------------------------------------------------|

E|-----------------0-----------------------------------------------|-----------------0-------------------------------3---------------|
B|---------------------0---------------------------0---------------|---------------------0-------------------------------3-----------|
G|---------9---------------9---------------9---------------9-------|-------------0-------------------------------0-----------0-------|
D|-----9-------9---------------9-------9-------9-------9-------0---|---------2---------------2---0-----------0-------------------0---|
A|-7-------------------------------7-------------------------------|-----2-------------------------------2---------------------------|
E|-----------------------------------------------------------------|-0-------------------------------3-------------------------------|

E|-------------3---2-----------------------------------------------|-----------------------------------------------------------------|
B|---------3-----------3---------------------------3---------------|-----------------0-------------------------------0---------------|
G|-----2-------------------2---------------0---------------0-------|---------5---------------5---------------7---------------7-------|
D|-0---------------------------0-------4-------4-------4-------X---|-----5-------5-------5---------------7-------7-------7-------0---|
A|---------------------------------2-------------------------------|-3---------------------------3---5-------------------------------|
E|-----------------------------------------------------------------|-----------------------------------------------------------------|

E|-----------------0-----------------------------------------------|-----------------0-------------------------------3---------------|
B|---------------------0---------------------------9---------------|---------------------0-------------------------------3-----------|
G|---------9---------------9---------------9---------------9---0---|-------------0-------------------------------0-----------0-------|
D|-----9-------9---------------9-------9-------9-------9-------0---|---------2---------------2---0-----------0-------------------0---|
A|-7-------------------------------7-------------------------------|-----2-------------------------------2---------------------------|
E|-----------------------------------------------------------------|-0-------------------------------3-------------------------------|

E|-------------3---2-----------------------------------------------|-----------------0-------------------------------0---------------|
B|---------3-----------3---------------------------3---------------|-------------0-------0-----------------------0-------0-----------|
G|-----2-------------------2---0-----------0---------------0-------|---------5---------------5---------------7---------------7-------|
D|-0-----------------------------------4-------4-------4-------X---|-----X-----------------------5-------7-----------------------X---|
A|---------------------------------2-------------------------------|-3-------------------------------5-------------------------------|
E|-----------------------------------------------------------------|-----------------------------------------------------------------|

E|-----------------0-----------------------------------------------|-----------------0-------------------------------3---------------|
B|---------------------0---------------------------0---------------|---------------------0-------------------------------3-----------|
G|---------9---------------9---------------9---------------9-------|-------------0-------------------------------0-----------0-------|
D|-----9-------9---------------9-------9-------9-------9-------0---|---------2---------------2---0-----------0-------------------0---|
A|-7-------------------------------7-------------------------------|-----2-------------------------------2---------------------------|
E|-----------------------------------------------------------------|-0-------------------------------3-------------------------------|

E|-------------3---2-----------------------------------------------|-----------------------------------------------------------------|
B|---------3-----------3---------------------------3---------------|-----------------0-------------------------------0---------------|
G|-----2-------------------2---------------0---------------0-------|---------5---------------5---------------7---------------7-------|
D|-0---------------------------0-------4-------4-------4-------X---|-----5-------5-------5---------------7-------7-------7-------0---|
A|---------------------------------2-------------------------------|-3---------------------------3---5-------------------------------|
E|-----------------------------------------------------------------|-----------------------------------------------------------------|

E|-----------------0-----------------------------------------------|-----------------0-------------------------------3---------------|
B|---------------------0---------------------------9---------------|---------------------0-------------------------------3-----------|
G|---------9---------------9---------------9---------------9---0---|-------------0-------------------------------0-----------0-------|
D|-----9-------9---------------9-------9-------9-------9-------0---|---------2---------------2---0-----------0-------------------0---|
A|-7-------------------------------7-------------------------------|-----2-------------------------------2---------------------------|
E|-----------------------------------------------------------------|-0-------------------------------3-------------------------------|

E|-------------3---2-----------------------------------------------|-----------------0-------------------------------0---------------|
B|---------3-----------3---------------------------3---------------|---------------------0-------------------------------0-----------|
G|-----2-------------------2---0-----------0---------------0-------|---------5---------------5---------------7---------------7-------|
D|-0-----------------------------------4-------4-------4-------X---|-----5-------5---------------5-------7-------7---------------X---|
A|---------------------------------2-------------------------------|-3-------------------------------5-------------------------------|
E|-----------------------------------------------------------------|-----------------------------------------------------------------|

E|-----------------------------------------------------------------|---------|---------|
B|-----------------------------------------------------------------|---------|---------|
G|-----------------------------------------------------------------|-%-------|-%-------|
D|-9---9---9---9---9---9---9---9---2---2---2---2---2---2---2---2---|-%-------|-%-------|
A|-7---7---7---7---7---7---7---7---2---2---2---2---2---2---2---2---|---------|---------|
E|---------------------------------0---0---0---0---0---0---0---0---|---------|---------|

E|---------|---------|---------|---------|---------|---------|---------|---------|---------|
B|---------|---------|---------|---------|---------|---------|---------|---------|---------|
G|-%-------|-%-------|-%-------|-%-------|-%-------|-%-------|-%-------|-%-------|-%-------|
D|-%-------|-%-------|-%-------|-%-------|-%-------|-%-------|-%-------|-%-------|-%-------|
A|---------|---------|---------|---------|---------|---------|---------|---------|---------|
E|---------|---------|---------|---------|---------|---------|---------|---------|---------|

E|---------|---------|---------|---------|---------|---------|---------|---------|---------|
B|---------|---------|---------|---------|---------|---------|---------|---------|---------|
G|-%-------|-%-------|-%-------|-%-------|-%-------|-%-------|-%-------|-%-------|-%-------|
D|-%-------|-%-------|-%-------|-%-------|-%-------|-%-------|-%-------|-%-------|-%-------|
A|---------|---------|---------|---------|---------|---------|---------|---------|---------|
E|---------|---------|---------|---------|---------|---------|---------|---------|---------|

E|---------|---------|---------|---------|---------|---------|---------|---------|---------|
B|---------|---------|---------|---------|---------|---------|---------|---------|---------|
G|-%-------|-%-------|-%-------|-%-------|-%-------|-%-------|-%-------|-%-------|-%-------|
D|-%-------|-%-------|-%-------|-%-------|-%-------|-%-------|-%-------|-%-------|-%-------|
A|---------|---------|---------|---------|---------|---------|---------|---------|---------|
E|---------|---------|---------|---------|---------|---------|---------|---------|---------|

E|---------|---------|---------|---------|---------|---------|---------|---------|---------|
B|---------|---------|---------|---------|---------|---------|---------|---------|---------|
G|-%-------|-%-------|-%-------|-%-------|-%-------|-%-------|-%-------|-%-------|-%-------|
D|-%-------|-%-------|-%-------|-%-------|-%-------|-%-------|-%-------|-%-------|-%-------|
A|---------|---------|---------|---------|---------|---------|---------|---------|---------|
E|---------|---------|---------|---------|---------|---------|---------|---------|---------|

E|---------|---------|---------|---------|---------|---------|---------|---------|---------|
B|---------|---------|---------|---------|---------|---------|---------|---------|---------|
G|-%-------|-%-------|-%-------|-%-------|-%-------|-%-------|-%-------|-%-------|-%-------|
D|-%-------|-%-------|-%-------|-%-------|-%-------|-%-------|-%-------|-%-------|-%-------|
A|---------|---------|---------|---------|---------|---------|---------|---------|---------|
E|---------|---------|---------|---------|---------|---------|---------|---------|---------|

E|---------|---------|---------|---------|---------|---------|
B|---------|---------|---------|---------|---------|---------|
G|-%-------|-%-------|-%-------|-%-------|-%-------|-%-------|
D|-%-------|-%-------|-%-------|-%-------|-%-------|-%-------|
A|---------|---------|---------|---------|---------|---------|
E|---------|---------|---------|---------|---------|---------|
Iron Maiden - Look For The Truth
Iron Maiden - Look For The Truth.gp3