Iron Maiden - Losfer Words (Bassline)

Iron Maiden - Losfer Words (Bassline)

Iron Maiden



Title: Losfer Words
Album: PowerSlave
Artist: Iron Maiden
Author: Steve Harris

Track 1: 5 String Bass
G|---------|---------|-------------------------------------------------------------|
D|---------|---------|-------------------------------------------------------------|
A|---------|---------|-------------------------------------------------------------|
E|---------|---------|-5----5----5----5----5----5----5----5----5----5----5----5----|
B|---------|---------|-------------------------------------------------------------|

G|-------------------------------------------------------------|-------------------------------------------------------------|
D|-------------------------------------------------------------|-------------------------------------------------------------|
A|-------------------------------------------------------------|-------------------------------------------------------------|
E|-5----5----5----5----5----5----5----5----5----5----5----5----|-5----5----5----5----5----5----5----5----5----5----5----5----|
B|-------------------------------------------------------------|-------------------------------------------------------------|

G|-------------------------------------------------|-------------------------------------------------------------|
D|-------------------------------------------------|-------------------------------------------------------------|
A|-------------------------------------------------|-------------------------------------------------------------|
E|-5----5----5----5----5----5----8-----8-----8-----|-5----5----5----5----5----5----5----5----5----5----5----5----|
B|-------------------------------------------------|-------------------------------------------------------------|

G|-------------------------------------------------------------|-------------------------------------------------------------|
D|-------------------------------------------------------------|-------------------------------------------------------------|
A|-------------------------------------------------------------|-------------------------------------------------------------|
E|-5----5----5----5----5----5----5----5----5----5----5----5----|-5----5----5----5----5----5----5----5----5----5----5----5----|
B|-------------------------------------------------------------|-------------------------------------------------------------|

G|-------------------------------------------------|-------------------------------------------------|
D|-------------------------------------------------|-------------------------------------------------|
A|-------------------------------------------------|-------------------------------------------------|
E|-5----5----5----5----5----5----8-----8-----8-----|-0----0----0----0----0----0----3-----3-----3-----|
B|-------------------------------------------------|-------------------------------------------------|

G|-------------------------------------------------------------|-------------------------------------------------|
D|-------------------------------------------------------------|-------------------------------------------------|
A|-------------------------------------------------------------|-------------------------------------------------|
E|-0----0----0----0----0----0----5----5----5----5----3----2----|-0----0----0----0----0----0----3-----3-----3-----|
B|-------------------------------------------------------------|-------------------------------------------------|

G|----------------------------------------------------|-------------------------------------------------|
D|----------------------------------------------------|-------------------------------------------------|
A|----------------------------------------------------|-------------------------------------------------|
E|-0----0----0----0----0----0----5----5----5----5-----|-0----0----0----0----0----0----3-----3-----3-----|
B|----------------------------------------------------|-------------------------------------------------|

G|-------------------------------------------------------------|-------------------------------------------------|
D|-------------------------------------------------------------|-------------------------------------------------|
A|-------------------------------------------------------------|-------------------------------------------------|
E|-0----0----0----0----0----0----5----5----5----5----3----2----|-0----0----0----0----0----0----3-----3-----3-----|
B|-------------------------------------------------------------|-------------------------------------------------|

G|-------------------------------------------------------------|-------------------------------------------------------------|
D|-------------------------------------------------------------|-------------------------------------------------------------|
A|-------------------------------------------------------------|-------------------------------------------------------------|
E|-0----0----0----0----0----0----5----5----5----5----5----5----|-5----5----5----5----5----5----5----5----5----5----5----5----|
B|-------------------------------------------------------------|-------------------------------------------------------------|

G|-------------------------------------------------------------|-------------------------------------------------------------|
D|-------------------------------------------------------------|-------------------------------------------------------------|
A|-------------------------------------------------------------|-------------------------------------------------------------|
E|-5----5----5----5----5----5----5----5----5----5----5----5----|-5----5----5----5----5----5----5----5----5----5----5----5----|
B|-------------------------------------------------------------|-------------------------------------------------------------|

G|-------------------------------------------------|-------------------------------------------------------------|
D|-------------------------------------------------|-------------------------------------------------------------|
A|-------------------------------------------------|-------------------------------------------------------------|
E|-5----5----5----5----5----5----8-----8-----8-----|-5----5----5----5----5----5----5----5----5----5----5----5----|
B|-------------------------------------------------|-------------------------------------------------------------|

G|-------------------------------------------------------------|-------------------------------------------------------------|
D|-------------------------------------------------------------|-------------------------------------------------------------|
A|-------------------------------------------------------------|-------------------------------------------------------------|
E|-5----5----5----5----5----5----5----5----5----5----5----5----|-5----5----5----5----5----5----5----5----5----5----5----5----|
B|-------------------------------------------------------------|-------------------------------------------------------------|

G|-------------------------------------------------|-------------------------------------------------|
D|-------------------------------------------------|-------------------------------------------------|
A|-------------------------------------------------|-------------------------------------------------|
E|-5----5----5----5----5----5----8-----8-----8-----|-0----0----0----0----0----0----3-----3-----3-----|
B|-------------------------------------------------|-------------------------------------------------|

G|-------------------------------------------------------------|-------------------------------------------------|
D|-------------------------------------------------------------|-------------------------------------------------|
A|-------------------------------------------------------------|-------------------------------------------------|
E|-0----0----0----0----0----0----5----5----5----5----3----2----|-0----0----0----0----0----0----3-----3-----3-----|
B|-------------------------------------------------------------|-------------------------------------------------|

G|----------------------------------------------------|-------------------------------------------------|
D|----------------------------------------------------|-------------------------------------------------|
A|----------------------------------------------------|-------------------------------------------------|
E|-0----0----0----0----0----0----5----5----5----5-----|-0----0----0----0----0----0----3-----3-----3-----|
B|----------------------------------------------------|-------------------------------------------------|

G|-------------------------------------------------------------|-------------------------------------------------|
D|-------------------------------------------------------------|-------------------------------------------------|
A|-------------------------------------------------------------|-------------------------------------------------|
E|-0----0----0----0----0----0----5----5----5----5----3----2----|-0----0----0----0----0----0----3-----3-----3-----|
B|-------------------------------------------------------------|-------------------------------------------------|

G|-------------------------------------------------------------|-----------------------------------------------------|
D|-------------------------------------------------------------|-----------------------------------------------------|
A|-------------------------------------------------------------|-----------------------------------------------------|
E|-0----0----0----0----0----0----5----5----5----5----5----5----|-8-----8----8----8----8----8-----8----8----8----8----|
B|-------------------------------------------------------------|-----------------------------------------------------|

G|-----------------------------------------------------|-----------------------------------------------------|
D|-----------------------------------------------------|-----------------------------------------------------|
A|-----------------------------------------------------|-----------------------------------------------------|
E|-8-----8----8----8----8----8-----8----8----8----8----|-10----10---10---10---10---10----10---10---10---10---|
B|-----------------------------------------------------|-----------------------------------------------------|

G|-------------------------------------------------------------|-----------------------------------------------------|
D|-------------------------------------------------------------|-----------------------------------------------------|
A|-9----9----9----10---10---10---12---12---12---12---10---9----|-6-----6----6----6----6----6-----6----6----6----6----|
E|-------------------------------------------------------------|-----------------------------------------------------|
B|-------------------------------------------------------------|-----------------------------------------------------|

G|-----------------------------------------------------|-----------------------------------------------------|
D|-----------------------------------------------------|-----------------------------------------------------|
A|-----------------------------------------------------|-----------------------------------------------------|
E|-6-----6----6----6----6----6-----6----6----6----6----|-8-----8----8----8----8----8-----8----8----8----8----|
B|-----------------------------------------------------|-----------------------------------------------------|

G|-------------------------------------------------------------|-----------------------------------------------------|
D|-------------------------------10---10---10---10---10---10---|-----------------------------------------------------|
A|-7----7----7----10---10---10---------------------------------|-----------------------------------------------------|
E|-------------------------------------------------------------|-8-----8----8----8----8----8-----8----8----8----8----|
B|-------------------------------------------------------------|-----------------------------------------------------|

G|-----------------------------------------------------|-----------------------------------------------------|
D|-----------------------------------------------------|-----------------------------------------------------|
A|-----------------------------------------------------|-----------------------------------------------------|
E|-8-----8----8----8----8----8-----8----8----8----8----|-10----10---10---10---10---10----10---10---10---10---|
B|-----------------------------------------------------|-----------------------------------------------------|

G|-------------------------------------------------------------|-----------------------------------------------------|
D|-------------------------------------------------------------|-----------------------------------------------------|
A|-9----9----9----10---10---10---12---12---12---12---10---9----|-6-----6----6----6----6----6-----6----6----6----6----|
E|-------------------------------------------------------------|-----------------------------------------------------|
B|-------------------------------------------------------------|-----------------------------------------------------|

G|-----------------------------------------------------|-----------------------------------------------------|
D|-----------------------------------------------------|-----------------------------------------------------|
A|-6-----6----6----6----6----6-----6----6----6----6----|-----------------------------------------------------|
E|-----------------------------------------------------|-8-----8----8----8----8----8-----8----8----8----8----|
B|-----------------------------------------------------|-----------------------------------------------------|

G|-------------------------------5----5----5----5----5----5----|-------------------------------------------------------------|
D|----------------5----5----5----------------------------------|-5----4----0----5----4----0----5----4----0----5----4----0----|
A|-7----7----7-------------------------------------------------|-------------------------------------------------------------|
E|-------------------------------------------------------------|-------------------------------------------------------------|
B|-------------------------------------------------------------|-------------------------------------------------------------|

G|-------------------------------------------------------------|-------------------------------------------------------------|
D|-5----4----0----5----4----0----5----4----0-------------------|-7----5----0----7----5----0----7----5----0----7----5----0----|
A|----------------------------------------------5----5----5----|-------------------------------------------------------------|
E|-------------------------------------------------------------|-------------------------------------------------------------|
B|-------------------------------------------------------------|-------------------------------------------------------------|

G|-------------------------------------------------------------|-----------------------------------------------------|
D|-7----5----0----7----5----0----7----5----0-------------------|-----------------------------------------------------|
A|----------------------------------------------3----3----3----|-6-----6----6----6----6----6-----6----6----6----6----|
E|-------------------------------------------------------------|-----------------------------------------------------|
B|-------------------------------------------------------------|-----------------------------------------------------|

G|---------------------------------------------|-----------------------------------------------------|
D|---------------------------------------------|-----------------------------------------------------|
A|---------------------------------------------|-----------------------------------------------------|
E|-6-----6----6----6----6----6-----8-----10----|-8-----8----8----8----8----8-----8----8----8----8----|
B|---------------------------------------------|-----------------------------------------------------|

G|-----------------------------------------------------|-------------------------------------------------------------|
D|-----------------------------------------------------|-5----4----0----5----4----0----5----4----0----5----4----0----|
A|-----------------------------------------------------|-------------------------------------------------------------|
E|-8-----8----8----8----8----8-----8----8----8----8----|-------------------------------------------------------------|
B|-----------------------------------------------------|-------------------------------------------------------------|

G|-------------------------------------------------------------|-------------------------------------------------------------|
D|-5----4----0----5----4----0----5----4----0----0----0----0----|-7----5----0----7----5----0----7----5----0----7----5----0----|
A|-------------------------------------------------------------|-------------------------------------------------------------|
E|-------------------------------------------------------------|-------------------------------------------------------------|
B|-------------------------------------------------------------|-------------------------------------------------------------|

G|-------------------------------------------------------------|-----------------------------------------------------|
D|-7----5----0----7----5----0----7----5----0-------------------|-----------------------------------------------------|
A|----------------------------------------------3----3----3----|-6-----6----6----6----6----6-----6----6----6----6----|
E|-------------------------------------------------------------|-----------------------------------------------------|
B|-------------------------------------------------------------|-----------------------------------------------------|

G|---------------------------------------------|-----------------------------------------------------|
D|---------------------------------------------|-----------------------------------------------------|
A|---------------------------------------------|-----------------------------------------------------|
E|-6-----6----6----6----6----6-----8-----10----|-8-----8----8----8----8----8-----8----8----8----8----|
B|---------------------------------------------|-----------------------------------------------------|

G|-----------------------------------------------------|-----------------------------------------------------|
D|-----------------------------------------------------|-----------------------------------------------------|
A|-----------------------------------------------------|-----------------------------------------------------|
E|-8-----8----8----8----8----8-----8----8----8----8----|-10----10---10---10---10---10----10---10---10---10---|
B|-----------------------------------------------------|-----------------------------------------------------|

G|-----------------------------------------------------|-----------------------------------------------------|
D|-----------------------------------------------------|-----------------------------------------------------|
A|-----------------------------------------------------|-----------------------------------------------------|
E|-10----10---10---10---10---10----10---10---10---10---|-8-----8----8----8----8----8-----8----8----8----8----|
B|-----------------------------------------------------|-----------------------------------------------------|

G|-----------------------------------------------------|-----------------------------------------------------|
D|-----------------------------------------------------|-----------------------------------------------------|
A|-----------------------------------------------------|-----------------------------------------------------|
E|-8-----8----8----8----8----8-----8----8----8----8----|-5-----5----5----5----5----5-----5----5----5----5----|
B|-----------------------------------------------------|-----------------------------------------------------|

G|-----------------------------------------------------|-----------------------------------------------------|
D|-----------------------------------------------------|-----------------------------------------------------|
A|-----------------------------------------------------|-----------------------------------------------------|
E|-5-----5----5----5----5----5-----5----5----5----5----|-----------------------------------------------------|
B|-----------------------------------------------------|-6-----6----6----6----6----6-----6----6----6----6----|

G|-----------------------------------------------------|-----------------------------------------------------|
D|-----------------------------------------------------|-----------------------------------------------------|
A|-----------------------------------------------------|-----------------------------------------------------|
E|-----------------------------------------------------|-10----10---10---10---10---10----10---10---10---10---|
B|-8-----8----8----8----8----8-----8----8----8----8----|-----------------------------------------------------|

G|-----------------------------------------------------|-----------------------------------------------------|
D|-----------------------------------------------------|-----------------------------------------------------|
A|-----------------------------------------------------|-----------------------------------------------------|
E|-10----10---10---10---10---10----10---10---10---10---|-8-----8----8----8----8----8-----8----8----8----8----|
B|-----------------------------------------------------|-----------------------------------------------------|

G|-----------------------------------------------------|-----------------------------------------------------|
D|-----------------------------------------------------|-----------------------------------------------------|
A|-----------------------------------------------------|-----------------------------------------------------|
E|-8-----8----8----8----8----8-----8----8----8----8----|-5-----5----5----5----5----5-----5----5----5----5----|
B|-----------------------------------------------------|-----------------------------------------------------|

G|-----------------------------------------------------|-----------------------------------------------------|
D|-----------------------------------------------------|-----------------------------------------------------|
A|-----------------------------------------------------|-----------------------------------------------------|
E|-5-----5----5----5----5----5-----5----5----5----5----|-----------------------------------------------------|
B|-----------------------------------------------------|-6-----6----6----6----6----6-----6----6----6----6----|

G|-----------------------------------------------------|-------------------------------------------------------------|
D|-----------------------------------------------------|-5----4----0----5----4----0----5----4----0----5----4----0----|
A|-----------------------------------------------------|-------------------------------------------------------------|
E|-3-----3----3----3----3----3-----3----3----3----3----|-------------------------------------------------------------|
B|-----------------------------------------------------|-------------------------------------------------------------|

G|-------------------------------------------------------------|-------------------------------------------------------------|
D|-5----4----0----5----4----0----5----4----0----0----0----0----|-7----5----0----7----5----0----7----5----0----7----5----0----|
A|-------------------------------------------------------------|-------------------------------------------------------------|
E|-------------------------------------------------------------|-------------------------------------------------------------|
B|-------------------------------------------------------------|-------------------------------------------------------------|

G|-------------------------------------------------------------|-------------------------------------------------------------|
D|-7----5----0----7----5----0----7----5----0-------------------|-5----4----0----5----4----0----5----4----0----5----4----0----|
A|----------------------------------------------3----3----3----|-------------------------------------------------------------|
E|-------------------------------------------------------------|-------------------------------------------------------------|
B|-------------------------------------------------------------|-------------------------------------------------------------|

G|-------------------------------------------------------------|-------------------------------------------------------------|
D|-5----4----0----5----4----0----5----4----0----0----0----0----|-7----5----0----7----5----0----7----5----0----7----5----0----|
A|-------------------------------------------------------------|-------------------------------------------------------------|
E|-------------------------------------------------------------|-------------------------------------------------------------|
B|-------------------------------------------------------------|-------------------------------------------------------------|

G|-------------------------------------------------------------|-------------------------------------------------------------|
D|-7----5----0----7----5----0----7----5----0-------------------|-5----4----0----5----4----0----5----4----0----5----4----0----|
A|----------------------------------------------3----3----3----|-------------------------------------------------------------|
E|-------------------------------------------------------------|-------------------------------------------------------------|
B|-------------------------------------------------------------|-------------------------------------------------------------|

G|-------------------------------------------------------------|-------------------------------------------------------------|
D|-5----4----0----5----4----0----5----4----0----0----0----0----|-7----5----0----7----5----0----7----5----0----7----5----0----|
A|-------------------------------------------------------------|-------------------------------------------------------------|
E|-------------------------------------------------------------|-------------------------------------------------------------|
B|-------------------------------------------------------------|-------------------------------------------------------------|

G|-------------------------------------------------------------|-------------------------------------------------------------|
D|-7----5----0----7----5----0----7----5----0-------------------|-5----4----0----5----4----0----5----4----0----5----4----0----|
A|----------------------------------------------3----3----3----|-------------------------------------------------------------|
E|-------------------------------------------------------------|-------------------------------------------------------------|
B|-------------------------------------------------------------|-------------------------------------------------------------|

G|-------------------------------------------------------------|-------------------------------------------------------------|
D|-5----4----0----5----4----0----5----4----0----0----0----0----|-7----5----0----7----5----0----7----5----0----7----5----0----|
A|-------------------------------------------------------------|-------------------------------------------------------------|
E|-------------------------------------------------------------|-------------------------------------------------------------|
B|-------------------------------------------------------------|-------------------------------------------------------------|

G|-------------------------------------------------------------|-------------------------------------------------------------|
D|-7----5----0----7----5----0----7----5----0-------------------|-------------------------------9-----------------------------|
A|-------------------------------------------------------------|-7----7----7----10---10---10--------10---10---12---10---9----|
E|----------------------------------------------8----8----8----|-------------------------------------------------------------|
B|-------------------------------------------------------------|-------------------------------------------------------------|

G|-------------------------------------------------------------|-------------------------------------------------------------|
D|-------------------------------9------------------------7----|-------------------------------9-----------------------------|
A|-7----7----7----10---10---10--------10---10---9----10--------|-7----7----7----10---10---10--------10---10---12---10---9----|
E|-------------------------------------------------------------|-------------------------------------------------------------|
B|-------------------------------------------------------------|-------------------------------------------------------------|

G|-------------------------------------------------------------|-------------------------------------------------------------|
D|-------------------------------9------------------------7----|-------------------------------9-----------------------------|
A|-7----7----7----10---10---10--------10---10---9----10--------|-7----7----7----10---10---10--------10---10---12---10---9----|
E|-------------------------------------------------------------|-------------------------------------------------------------|
B|-------------------------------------------------------------|-------------------------------------------------------------|

G|-------------------------------------------------------------|-------------------------------------------------------------|
D|-------------------------------9------------------------7----|-------------------------------9-----------------------------|
A|-7----7----7----10---10---10--------10---10---9----10--------|-7----7----7----10---10---10--------10---10---12---10---9----|
E|-------------------------------------------------------------|-------------------------------------------------------------|
B|-------------------------------------------------------------|-------------------------------------------------------------|

G|-------------------------------------------------------------|-------------------------------------------------------------|
D|-------------------------------9------------------------7----|-------------------------------9-----------------------------|
A|-7----7----7----10---10---10--------10---10---9----10--------|-7----7----7----10---10---10--------10---10---12---10---9----|
E|-------------------------------------------------------------|-------------------------------------------------------------|
B|-------------------------------------------------------------|-------------------------------------------------------------|

G|-------------------------------------------------------------|-------------------------------------------------------------|
D|-------------------------------9------------------------7----|-------------------------------9-----------------------------|
A|-7----7----7----10---10---10--------10---10---9----10--------|-7----7----7----10---10---10--------10---10---12---10---9----|
E|-------------------------------------------------------------|-------------------------------------------------------------|
B|-------------------------------------------------------------|-------------------------------------------------------------|

G|-------------------------------------------------------------|-------------------------------------------------------------|
D|-------------------------------9------------------------7----|-------------------------------9-----------------------------|
A|-7----7----7----10---10---10--------10---10---9----10--------|-7----7----7----10---10---10--------10---10---12---10---9----|
E|-------------------------------------------------------------|-------------------------------------------------------------|
B|-------------------------------------------------------------|-------------------------------------------------------------|

G|-------------------------------------------------------------|-------------------------------------------------------------|
D|-------------------------------9------------------------7----|-------------------------------------------------------------|
A|-7----7----7----10---10---10--------10---10---9----10--------|-7----7----7----10---10---10---14---10---10---12---10---9----|
E|-------------------------------------------------------------|-------------------------------------------------------------|
B|-------------------------------------------------------------|-------------------------------------------------------------|

G|-------------------------------------------------------------|---------------------------------------------|
D|--------------------------------------------------------7----|---------------------------------------------|
A|-7----7----7----10---10---10---14---10---10---9----10--------|---------------------------------------------|
E|-------------------------------------------------------------|---------------------------------------------|
B|-------------------------------------------------------------|-4-----4-----4----4----4-----4-----4----4----|

G|---------------------------------------------|---------------------------------------------|
D|---------------------------------------------|---------------------------------------------|
A|---------------------------------------------|---------------------------------------------|
E|---------------------------------------------|---------------------------------------------|
B|-4-----4-----4----4----4-----4-----4----4----|-4-----4-----4----4----4-----4-----4----4----|

G|-------------------------------------------------------------|---------------------------------------------|
D|-------------------------------------------------------------|---------------------------------------------|
A|-------------------------------------------------------------|---------------------------------------------|
E|-------------------------------------------------------------|---------------------------------------------|
B|-4----4----4----4----4----4----4----4----4----4----4----4----|-6-----6-----6----6----6-----6-----6----6----|

G|---------------------------------------------|---------------------------------------------|
D|---------------------------------------------|---------------------------------------------|
A|---------------------------------------------|---------------------------------------------|
E|---------------------------------------------|---------------------------------------------|
B|-6-----6-----6----6----6-----6-----6----6----|-6-----6-----6----6----6-----6-----6----6----|

G|-------------------------------------------------------------|---------------------------------------------|
D|-------------------------------------------------------------|---------------------------------------------|
A|-------------------------------------------------------------|---------------------------------------------|
E|-------------------------------------------------------------|---------------------------------------------|
B|-6----6----6----6----6----6----6----6----6----6----6----6----|-4-----4-----4----4----4-----4-----4----4----|

G|---------------------------------------------|---------------------------------------------|
D|---------------------------------------------|---------------------------------------------|
A|---------------------------------------------|---------------------------------------------|
E|---------------------------------------------|---------------------------------------------|
B|-4-----4-----4----4----4-----4-----4----4----|-4-----4-----4----4----4-----4-----4----4----|

G|-------------------------------------------------------------|---------------------------------------------|
D|-------------------------------------------------------------|---------------------------------------------|
A|-------------------------------------------------------------|---------------------------------------------|
E|-------------------------------------------------------------|---------------------------------------------|
B|-4----4----4----4----4----4----4----4----4----4----4----4----|-6-----6-----6----6----6-----6-----6----6----|

G|-----------------------------------------------------|---------------------------------------------|
D|-----------------------------------------------------|---------------------------------------------|
A|-----------------------------------------------------|---------------------------------------------|
E|-----------------------------------------------------|---------------------------------------------|
B|-6-----6-----6----6----6----6----6----6----6----6----|-6-----6-----6----6----6-----6-----6----6----|

G|----------------------------------------------------|-------------------------------------------------------------|
D|----------------------------------------------------|-------------------------------------------------------------|
A|----------------------------------------------------|-------------------------------------------------------------|
E|----------------------------------------------------|-5----5----5----5----5----5----5----5----5----5----5----5----|
B|-6----6----6----6----6----6----6----6----6----6-----|-------------------------------------------------------------|

G|-------------------------------------------------------------|-------------------------------------------------------------|
D|-------------------------------------------------------------|-------------------------------------------------------------|
A|-------------------------------------------------------------|-------------------------------------------------------------|
E|-5----5----5----5----5----5----5----5----5----5----5----5----|-5----5----5----5----5----5----5----5----5----5----5----5----|
B|-------------------------------------------------------------|-------------------------------------------------------------|

G|-------------------------------------------------|-------------------------------------------------------------|
D|-------------------------------------------------|-------------------------------------------------------------|
A|-------------------------------------------------|-------------------------------------------------------------|
E|-5----5----5----5----5----5----8-----8-----8-----|-5----5----5----5----5----5----5----5----5----5----5----5----|
B|-------------------------------------------------|-------------------------------------------------------------|

G|-------------------------------------------------------------|-------------------------------------------------------------|
D|-------------------------------------------------------------|-------------------------------------------------------------|
A|-------------------------------------------------------------|-------------------------------------------------------------|
E|-5----5----5----5----5----5----5----5----5----5----5----5----|-5----5----5----5----5----5----5----5----5----5----5----5----|
B|-------------------------------------------------------------|-------------------------------------------------------------|

G|-------------------------------------------------|-------------------------------------------------|
D|-------------------------------------------------|-------------------------------------------------|
A|-------------------------------------------------|-------------------------------------------------|
E|-5----5----5----5----5----5----8-----8-----8-----|-0----0----0----0----0----0----3-----3-----3-----|
B|-------------------------------------------------|-------------------------------------------------|

G|-------------------------------------------------------------|-------------------------------------------------|
D|-------------------------------------------------------------|-------------------------------------------------|
A|-------------------------------------------------------------|-------------------------------------------------|
E|-0----0----0----0----0----0----5----5----5----5----3----2----|-0----0----0----0----0----0----3-----3-----3-----|
B|-------------------------------------------------------------|-------------------------------------------------|

G|-------------------------------------------------------------|-------------------------------------------------|
D|-------------------------------------------------------------|-------------------------------------------------|
A|-------------------------------------------------------------|-------------------------------------------------|
E|-0----0----0----0----0----0----5----5----5----5----5----5----|-0----0----0----0----0----0----3-----3-----3-----|
B|-------------------------------------------------------------|-------------------------------------------------|

G|-------------------------------------------------------------|-------------------------------------------------|
D|-------------------------------------------------------------|-------------------------------------------------|
A|-------------------------------------------------------------|-------------------------------------------------|
E|-0----0----0----0----0----0----5----5----5----5----3----2----|-0----0----0----0----0----0----3-----3-----3-----|
B|-------------------------------------------------------------|-------------------------------------------------|

G|-------------------------------------------------------------|-------------------------------------------------------------|
D|-------------------------------------------------------------|-------------------------------------------------------------|
A|-------------------------------------------------------------|-------------------------------------------------------------|
E|-0----0----0----0----0----0----5----5----5----5----5----5----|-5----5----5----5----5----5----5----5----5----5----5----5----|
B|-------------------------------------------------------------|-------------------------------------------------------------|

G|-------------------------------------------------------------|-------------------------------------------------------------|
D|-------------------------------------------------------------|-------------------------------------------------------------|
A|-------------------------------------------------------------|-------------------------------------------------------------|
E|-5----5----5----5----5----5----5----5----5----5----5----5----|-5----5----5----5----5----5----5----5----5----5----5----5----|
B|-------------------------------------------------------------|-------------------------------------------------------------|

G|-------------------------------------------------|-------------------------------------------------------------|
D|-------------------------------------------------|-------------------------------------------------------------|
A|-------------------------------------------------|-------------------------------------------------------------|
E|-5----5----5----5----5----5----8-----8-----8-----|-5----5----5----5----5----5----5----5----5----5----5----5----|
B|-------------------------------------------------|-------------------------------------------------------------|

G|-------------------------------------------------------------|-------------------------------------------------------------|
D|-------------------------------------------------------------|-------------------------------------------------------------|
A|-------------------------------------------------------------|-------------------------------------------------------------|
E|-5----5----5----5----5----5----5----5----5----5----5----5----|-5----5----5----5----5----5----5----5----5----5----5----5----|
B|-------------------------------------------------------------|-------------------------------------------------------------|

G|-------------------------------------------------|-------------------------------------------------|
D|-------------------------------------------------|-------------------------------------------------|
A|-------------------------------------------------|-------------------------------------------------|
E|-5----5----5----5----5----5----8-----8-----8-----|-0----0----0----0----0----0----3-----3-----3-----|
B|-------------------------------------------------|-------------------------------------------------|

G|-------------------------------------------------------------|-------------------------------------------------|
D|-------------------------------------------------------------|-------------------------------------------------|
A|-------------------------------------------------------------|-------------------------------------------------|
E|-0----0----0----0----0----0----5----5----5----5----3----2----|-0----0----0----0----0----0----3-----3-----3-----|
B|-------------------------------------------------------------|-------------------------------------------------|

G|-------------------------------------------------------------|-------------------------------------------------|
D|-------------------------------------------------------------|-------------------------------------------------|
A|-------------------------------------------------------------|-------------------------------------------------|
E|-0----0----0----0----0----0----5----5----5----5----5----5----|-0----0----0----0----0----0----3-----3-----3-----|
B|-------------------------------------------------------------|-------------------------------------------------|

G|-------------------------------------------------------------|-------------------------------------------------|
D|-------------------------------------------------------------|-------------------------------------------------|
A|-------------------------------------------------------------|-------------------------------------------------|
E|-0----0----0----0----0----0----5----5----5----5----3----2----|-0----0----0----0----0----0----3-----3-----3-----|
B|-------------------------------------------------------------|-------------------------------------------------|

G|-------------------------------------------------------------|-----------------------------------------------------|
D|-------------------------------------------------------------|-----------------------------------------------------|
A|-------------------------------------------------------------|-----------------------------------------------------|
E|-0----0----0----0----0----0----5----5----5----5----5----5----|-8-----8----8----8----8----8-----8----8----8----8----|
B|-------------------------------------------------------------|-----------------------------------------------------|

G|-----------------------------------------------------|-----------------------------------------------------|
D|-----------------------------------------------------|-----------------------------------------------------|
A|-----------------------------------------------------|-----------------------------------------------------|
E|-8-----8----8----8----8----8-----8----8----8----8----|-10----10---10---10---10---10----10---10---10---10---|
B|-----------------------------------------------------|-----------------------------------------------------|

G|-------------------------------------------------------------|-----------------------------------------------------|
D|-------------------------------------------------------------|-----------------------------------------------------|
A|-9----9----9----10---10---10---12---12---12---12---10---9----|-6-----6----6----6----6----6-----6----6----6----6----|
E|-------------------------------------------------------------|-----------------------------------------------------|
B|-------------------------------------------------------------|-----------------------------------------------------|

G|-----------------------------------------------------|-----------------------------------------------------|
D|-----------------------------------------------------|-----------------------------------------------------|
A|-----------------------------------------------------|-----------------------------------------------------|
E|-6-----6----6----6----6----6-----6----6----6----6----|-8-----8----8----8----8----8-----8----8----8----8----|
B|-----------------------------------------------------|-----------------------------------------------------|

G|-------------------------------------------------------------|-----------------------------------------------------|
D|-------------------------------10---10---10---10---10---10---|-----------------------------------------------------|
A|-7----7----7----10---10---10---------------------------------|-----------------------------------------------------|
E|-------------------------------------------------------------|-8-----8----8----8----8----8-----8----8----8----8----|
B|-------------------------------------------------------------|-----------------------------------------------------|

G|-----------------------------------------------------|-----------------------------------------------------|
D|-----------------------------------------------------|-----------------------------------------------------|
A|-----------------------------------------------------|-----------------------------------------------------|
E|-8-----8----8----8----8----8-----8----8----8----8----|-10----10---10---10---10---10----10---10---10---10---|
B|-----------------------------------------------------|-----------------------------------------------------|

G|-------------------------------------------------------------|-----------------------------------------------------|
D|-------------------------------------------------------------|-----------------------------------------------------|
A|-9----9----9----10---10---10---12---12---12---12---10---9----|-6-----6----6----6----6----6-----6----6----6----6----|
E|-------------------------------------------------------------|-----------------------------------------------------|
B|-------------------------------------------------------------|-----------------------------------------------------|

G|-----------------------------------------------------|-----------------------------------------------------|
D|-----------------------------------------------------|-----------------------------------------------------|
A|-----------------------------------------------------|-----------------------------------------------------|
E|-6-----6----6----6----6----6-----6----6----6----6----|-8-----8----8----8----8----8-----8----8----8----8----|
B|-----------------------------------------------------|-----------------------------------------------------|

G|-------------------------------------------------------------|-------------------------------------------------------------|
D|-------------------------------10---10---10---10---10---10---|----------------10---10---10------------------10---10---10---|
A|-7----7----7----10---10---10---------------------------------|-------------------------------------------------------------|
E|-------------------------------------------------------------|-8----8----8-------------------8----8----8-------------------|
B|-------------------------------------------------------------|-------------------------------------------------------------|

G|----------------------------------------------------|
D|----------------10---10---10------------------10----|
A|----------------------------------------------------|
E|-8----8----8-------------------8----8----8----------|
B|----------------------------------------------------|
Iron Maiden - Losfer Words (Bassline)
Iron Maiden - Losfer Words (Bassline).gp3