Iron Maiden - Massacre (2)

Iron Maiden



Title: The Massacre
Album: The Evil That Men Do B-Side
Artist: Iron Maiden
Author: 

Track 1: Dist. Guitar 1
E|---------|---------|---------|---------10---8----|-7-----------------------------------|
B|---------|---------|---------|---------12---10---|-8-----8----8----8----8----7----8----|
G|-%-------|-%-------|-%-------|-%-----------------|-------9----9----9----9----7----9----|
D|-%-------|-%-------|-%-------|-%-----------------|-------------------------------------|
A|---------|---------|---------|-------------------|-------------------------------------|
E|---------|---------|---------|-------------------|-------------------------------------|

E|---------10---8----|-7-------------------------7---------|---------10---8----|-7-----------------------------------|
B|-8-------12---10---|-8-----8----8----8----8----8----7----|-7-------12---10---|-8-----8----8----8----8----7----8----|
G|-9-----------------|-------9----9----9----9---------7----|-7-----------------|-------9----9----9----9----7----9----|
D|-------------------|-------------------------------------|-------------------|-------------------------------------|
A|-------------------|-------------------------------------|-------------------|-------------------------------------|
E|-------------------|-------------------------------------|-------------------|-------------------------------------|

E|---------10---8----|-7-------------------------7---------|----------------------------|
B|-8-------12---10---|-8-----8----8----8----8----8----7----|-7------7-------------------|
G|-9-----------------|-------9----9----9----9---------7----|-7------7---------7---------|
D|-------------------|-------------------------------------|-------------9---------9----|
A|-------------------|-------------------------------------|----------------------------|
E|-------------------|-------------------------------------|----------------------------|

E|-----------------------------------------------------|-----------------------------------------------------|
B|-----------------8-----------------------------------|-----------------8-----------------------------------|
G|-9---9---9---9--------9----9---9---9---9---7----9----|-9---9---9---9--------9--------------------7---------|
D|-----------------------------------------------------|---------------------------9---9---9---9--------9----|
A|-----------------------------------------------------|-----------------------------------------------------|
E|-----------------------------------------------------|-----------------------------------------------------|

E|-----------------------------------------------------|-----------------------------------------------------|
B|-----------------8-----------------------------------|-----------------8-----------------------------------|
G|-9---9---9---9--------9----9---9---9---9---7----9----|-9---9---9---9--------9--------------------7---------|
D|-----------------------------------------------------|---------------------------9---9---9---9--------9----|
A|-----------------------------------------------------|-----------------------------------------------------|
E|-----------------------------------------------------|-----------------------------------------------------|

E|-----------------------------------------------------|-----------------------------------------------------|
B|-----------------8-----------------------------------|-----------------8-----------------------------------|
G|-9---9---9---9--------9----9---9---9---9---7----9----|-9---9---9---9--------9--------------------7---------|
D|-----------------------------------------------------|---------------------------9---9---9---9--------9----|
A|-----------------------------------------------------|-----------------------------------------------------|
E|-----------------------------------------------------|-----------------------------------------------------|

E|-----------------------------------------------------|-----------------------------------------------------|
B|-----------------8-----------------------------------|-----------------8-----------------------------------|
G|-9---9---9---9--------9----9---9---9---9---7----9----|-9---9---9---9--------9--------------------7---------|
D|-----------------------------------------------------|---------------------------9---9---9---9--------9----|
A|-----------------------------------------------------|-----------------------------------------------------|
E|-----------------------------------------------------|-----------------------------------------------------|

E|-----------------------------------------------------|-----------------------------------------------------|
B|-----------------8-----------------------------------|-----------------8-----------------------------------|
G|-9---9---9---9--------9----9---9---9---9---7----9----|-9---9---9---9--------9--------------------7---------|
D|-----------------------------------------------------|---------------------------9---9---9---9--------9----|
A|-----------------------------------------------------|-----------------------------------------------------|
E|-----------------------------------------------------|-----------------------------------------------------|

E|-----------------------------------------------------|-----------------------------------------------------|
B|-----------------8-----------------------------------|-----------------8-----------------------------------|
G|-9---9---9---9--------9----9---9---9---9---7----9----|-9---9---9---9--------9--------------------7---------|
D|-----------------------------------------------------|---------------------------9---9---9---9--------9----|
A|-----------------------------------------------------|-----------------------------------------------------|
E|-----------------------------------------------------|-----------------------------------------------------|

E|-----------------------------------------------------|-----------------------------------------------------|
B|-----------------8-----------------------------------|-----------------8-----------------------------------|
G|-9---9---9---9--------9----9---9---9---9---7----9----|-9---9---9---9--------9--------------------7---------|
D|-----------------------------------------------------|---------------------------9---9---9---9--------9----|
A|-----------------------------------------------------|-----------------------------------------------------|
E|-----------------------------------------------------|-----------------------------------------------------|

E|-----------------------------------------------------|-----------------------------------------------------|
B|-----------------8-----------------------------------|-----------------8---------X---8---10---8------------|
G|-9---9---9---9--------9----9---9---9---9---7----9----|-9---9---9---9--------9---------------------9---9----|
D|-----------------------------------------------------|-----------------------------------------------------|
A|-----------------------------------------------------|-----------------------------------------------------|
E|-----------------------------------------------------|-----------------------------------------------------|

E|-----------------------------------------------------|-----------------------------------------------------|
B|-----------------8-----------------------------------|-----------------8-----------------------------------|
G|-9---9---9---9--------9----9---9---9---9---7----9----|-9---9---9---9--------9--------------------7---------|
D|-----------------------------------------------------|---------------------------9---9---9---9--------9----|
A|-----------------------------------------------------|-----------------------------------------------------|
E|-----------------------------------------------------|-----------------------------------------------------|

E|-----------------------------------------------------|-----------------------------------------------------|
B|-----------------8-----------------------------------|-----------------8-----------------------------------|
G|-9---9---9---9--------9----9---9---9---9---7----9----|-9---9---9---9--------9--------------------7---------|
D|-----------------------------------------------------|---------------------------9---9---9---9--------9----|
A|-----------------------------------------------------|-----------------------------------------------------|
E|-----------------------------------------------------|-----------------------------------------------------|

E|-----------------------------------------------------|-----------------------------------------------------|
B|-----------------8-----------------------------------|-----------------8-----------------------------------|
G|-9---9---9---9--------9----9---9---9---9---7----9----|-9---9---9---9--------9--------------------7---------|
D|-----------------------------------------------------|---------------------------9---9---9---9--------9----|
A|-----------------------------------------------------|-----------------------------------------------------|
E|-----------------------------------------------------|-----------------------------------------------------|

E|-----------------------------------------------------|-----------------------------------------------------|
B|-----------------8-----------------------------------|-----------------8---------X---8---10---8------------|
G|-9---9---9---9--------9----9---9---9---9---7----9----|-9---9---9---9--------9---------------------9---9----|
D|-----------------------------------------------------|-----------------------------------------------------|
A|-----------------------------------------------------|-----------------------------------------------------|
E|-----------------------------------------------------|-----------------------------------------------------|

E|-----------------------------------------------------|-----------------------------------------------------|
B|-----------------8-----------------------------------|-----------------8-----------------------------------|
G|-9---9---9---9--------9----9---9---9---9---7----9----|-9---9---9---9--------9--------------------7---------|
D|-----------------------------------------------------|---------------------------9---9---9---9--------9----|
A|-----------------------------------------------------|-----------------------------------------------------|
E|-----------------------------------------------------|-----------------------------------------------------|

E|-----------------------------------------------------|-----------------------------------------------------|
B|-----------------8-----------------------------------|-----------------8-----------------------------------|
G|-9---9---9---9--------9----9---9---9---9---7----9----|-9---9---9---9--------9--------------------7---------|
D|-----------------------------------------------------|---------------------------9---9---9---9--------9----|
A|-----------------------------------------------------|-----------------------------------------------------|
E|-----------------------------------------------------|-----------------------------------------------------|

E|-----------------------------------------------------|-----------------------------------------------------|
B|-----------------8-----------------------------------|-----------------8-----------------------------------|
G|-9---9---9---9--------9----9---9---9---9---7----9----|-9---9---9---9--------9--------------------7---------|
D|-----------------------------------------------------|---------------------------9---9---9---9--------9----|
A|-----------------------------------------------------|-----------------------------------------------------|
E|-----------------------------------------------------|-----------------------------------------------------|

E|-----------------------------------------------------|-----------------------------------------------------|
B|-----------------8-----------------------------------|-----------------8-----------------------------------|
G|-9---9---9---9--------9----9---9---9---9---7----9----|-9---9---9---9--------9--------------------7---------|
D|-----------------------------------------------------|---------------------------9---9---9---9--------9----|
A|-----------------------------------------------------|-----------------------------------------------------|
E|-----------------------------------------------------|-----------------------------------------------------|

E|-----------------------------------------------------|-----------------------------------------------------|
B|-----------------8-----------------------------------|-----------------8-----------------------------------|
G|-9---9---9---9--------9----9---9---9---9---7----9----|-9---9---9---9--------9--------------------7---------|
D|-----------------------------------------------------|---------------------------9---9---9---9--------9----|
A|-----------------------------------------------------|-----------------------------------------------------|
E|-----------------------------------------------------|-----------------------------------------------------|

E|-----------------------------------------------------|-----------------------------------------------------|
B|-----------------8-----------------------------------|-----------------8-----------------------------------|
G|-9---9---9---9--------9----9---9---9---9---7----9----|-9---9---9---9--------9--------------------7---------|
D|-----------------------------------------------------|---------------------------9---9---9---9--------9----|
A|-----------------------------------------------------|-----------------------------------------------------|
E|-----------------------------------------------------|-----------------------------------------------------|

E|-----------------------------------------------------|-----------------------------------------------------|
B|-----------------8-----------------------------------|-----------------8-----------------------------------|
G|-9---9---9---9--------9----9---9---9---9---7----9----|-9---9---9---9--------9--------------------7---------|
D|-----------------------------------------------------|---------------------------9---9---9---9--------9----|
A|-----------------------------------------------------|-----------------------------------------------------|
E|-----------------------------------------------------|-----------------------------------------------------|

E|-----------------------------------------------------|-----------------------------------------------------|
B|-----------------8-----------------------------------|-----------------8---------X---8---10---8------------|
G|-9---9---9---9--------9----9---9---9---9---7----9----|-9---9---9---9--------9---------------------9---9----|
D|-----------------------------------------------------|-----------------------------------------------------|
A|-----------------------------------------------------|-----------------------------------------------------|
E|-----------------------------------------------------|-----------------------------------------------------|

E|-----------------------------------------------------|-----------------------------------------------------|
B|-----------------8-----------------------------------|-----------------8-----------------------------------|
G|-9---9---9---9--------9----9---9---9---9---7----9----|-9---9---9---9--------9--------------------7---------|
D|-----------------------------------------------------|---------------------------9---9---9---9--------9----|
A|-----------------------------------------------------|-----------------------------------------------------|
E|-----------------------------------------------------|-----------------------------------------------------|

E|-----------------------------------------------------|-----------------------------------------------------|
B|-----------------8-----------------------------------|-----------------8-----------------------------------|
G|-9---9---9---9--------9----9---9---9---9---7----9----|-9---9---9---9--------9--------------------7---------|
D|-----------------------------------------------------|---------------------------9---9---9---9--------9----|
A|-----------------------------------------------------|-----------------------------------------------------|
E|-----------------------------------------------------|-----------------------------------------------------|

E|-----------------------------------------------------|-----------------------------------------------------|
B|-----------------8-----------------------------------|-----------------8-----------------------------------|
G|-9---9---9---9--------9----9---9---9---9---7----9----|-9---9---9---9--------9--------------------7---------|
D|-----------------------------------------------------|---------------------------9---9---9---9--------9----|
A|-----------------------------------------------------|-----------------------------------------------------|
E|-----------------------------------------------------|-----------------------------------------------------|

E|-----------------------------------------------------|---------------------------------10---8----|
B|-----------------8-----------------------------------|-----------------8---------------12---10---|
G|-9---9---9---9--------9----9---9---9---9---7----9----|-9---9---9---9--------9----%---------------|
D|-----------------------------------------------------|---------------------------%---------------|
A|-----------------------------------------------------|-------------------------------------------|
E|-----------------------------------------------------|-------------------------------------------|

E|-7-----------------------------------|---------10---8----|-7-------------------------7---------|
B|-8-----8----8----8----8----7----8----|-8-------12---10---|-8-----8----8----8----8----8----7----|
G|-------9----9----9----9----7----9----|-9-----------------|-------9----9----9----9---------7----|
D|-------------------------------------|-------------------|-------------------------------------|
A|-------------------------------------|-------------------|-------------------------------------|
E|-------------------------------------|-------------------|-------------------------------------|

E|---------10---8----|-7-----------------------------------|---------10---8----|-7-------------------------7---------|
B|-7-------12---10---|-8-----8----8----8----8----7----8----|-8-------12---10---|-8-----8----8----8----8----8----7----|
G|-7-----------------|-------9----9----9----9----7----9----|-9-----------------|-------9----9----9----9---------7----|
D|-------------------|-------------------------------------|-------------------|-------------------------------------|
A|-------------------|-------------------------------------|-------------------|-------------------------------------|
E|-------------------|-------------------------------------|-------------------|-------------------------------------|

E|---------------------------------|---------------|----------------------------|-----------12----------------------------12------------------|
B|-7-----7-----7-------------------|-15-----15-----|-15-------------------------|------12--------12---15---12--------12--------12---15---12---|
G|-7-----7-----7---------7---------|-14-----14-----|-14----14--12--14----14-----|-14----------------------------14----------------------------|
D|------------------9---------9----|---------------|----------------------------|-------------------------------------------------------------|
A|---------------------------------|---------------|----------------------------|-------------------------------------------------------------|
E|---------------------------------|---------------|----------------------------|-------------------------------------------------------------|

E|------------------------------------|-------------------------------------|--------------------------|
B|-15---15--12--15----15----15---12---|-15----12---15---15---12---15---12---|-15----12-----------------|
G|------------------------------------|-------------------------------------|-------------14----12-----|
D|------------------------------------|-------------------------------------|--------------------------|
A|------------------------------------|-------------------------------------|--------------------------|
E|------------------------------------|-------------------------------------|--------------------------|

E|-17---17--15--17----17-----|-----------------12--13--14--15------------------12--13--14--15---15----|
B|---------------------------|-12--13--14--15------------------12--13--14--15-------------------------|
G|---------------------------|------------------------------------------------------------------------|
D|---------------------------|------------------------------------------------------------------------|
A|---------------------------|------------------------------------------------------------------------|
E|---------------------------|------------------------------------------------------------------------|

E|-15----15----17---15---15---0----|-----------12-------------------------------------------|
B|---------------------------------|------12--------15---12---------------------------------|
G|---------------------------------|-14-----------------------15---14---12--------14---12---|
D|---------------------------------|-----------------------------------------14-------------|
A|---------------------------------|--------------------------------------------------------|
E|---------------------------------|--------------------------------------------------------|

E|---------|-------------------------------------------------------------------------------------------------|
B|---------|-------------------------------------------------------------------------------------------------|
G|-12------|-------------------------------------------------------------------------------------------------|
D|---------|-------------------------------------------------------------------------------------------------|
A|---------|-------------------------------------------------------------------------------------------------|
E|---------|-12--12--11--11--10--10--9---9---8---8---7---7---6---6---5---5---4---4---3---3---2---2---1---1---|

E|-----------------------------------------------------|-----------------------------------------------------|
B|-----------------8-----------------------------------|-----------------8-----------------------------------|
G|-9---9---9---9--------9----9---9---9---9---7----9----|-9---9---9---9--------9--------------------7---------|
D|-----------------------------------------------------|---------------------------9---9---9---9--------9----|
A|-----------------------------------------------------|-----------------------------------------------------|
E|-----------------------------------------------------|-----------------------------------------------------|

E|-----------------------------------------------------|-----------------------------------------------------|
B|-----------------8-----------------------------------|-----------------8-----------------------------------|
G|-9---9---9---9--------9----9---9---9---9---7----9----|-9---9---9---9--------9--------------------7---------|
D|-----------------------------------------------------|---------------------------9---9---9---9--------9----|
A|-----------------------------------------------------|-----------------------------------------------------|
E|-----------------------------------------------------|-----------------------------------------------------|

E|-----------------------------------------------------|-----------------------------------------------------|
B|-----------------8-----------------------------------|-----------------8-----------------------------------|
G|-9---9---9---9--------9----9---9---9---9---7----9----|-9---9---9---9--------9--------------------7---------|
D|-----------------------------------------------------|---------------------------9---9---9---9--------9----|
A|-----------------------------------------------------|-----------------------------------------------------|
E|-----------------------------------------------------|-----------------------------------------------------|

E|-----------------------------------------------------|-----------------------------------------------------|
B|-----------------8-----------------------------------|-----------------8---------X---8---10---8------------|
G|-9---9---9---9--------9----9---9---9---9---7----9----|-9---9---9---9--------9---------------------9---9----|
D|-----------------------------------------------------|-----------------------------------------------------|
A|-----------------------------------------------------|-----------------------------------------------------|
E|-----------------------------------------------------|-----------------------------------------------------|

E|-----------------------------------------------------|-----------------------------------------------------|
B|-----------------8-----------------------------------|-----------------8-----------------------------------|
G|-9---9---9---9--------9----9---9---9---9---7----9----|-9---9---9---9--------9--------------------7---------|
D|-----------------------------------------------------|---------------------------9---9---9---9--------9----|
A|-----------------------------------------------------|-----------------------------------------------------|
E|-----------------------------------------------------|-----------------------------------------------------|

E|-----------------------------------------------------|-----------------------------------------------------|
B|-----------------8-----------------------------------|-----------------8-----------------------------------|
G|-9---9---9---9--------9----9---9---9---9---7----9----|-9---9---9---9--------9--------------------7---------|
D|-----------------------------------------------------|---------------------------9---9---9---9--------9----|
A|-----------------------------------------------------|-----------------------------------------------------|
E|-----------------------------------------------------|-----------------------------------------------------|

E|-----------------------------------------------------|-----------------------------------------------------|
B|-----------------8-----------------------------------|-----------------8-----------------------------------|
G|-9---9---9---9--------9----9---9---9---9---7----9----|-9---9---9---9--------9--------------------7---------|
D|-----------------------------------------------------|---------------------------9---9---9---9--------9----|
A|-----------------------------------------------------|-----------------------------------------------------|
E|-----------------------------------------------------|-----------------------------------------------------|

E|-----------------------------------------------------|-----------------------------------------------------|
B|-----------------8-----------------------------------|-----------------8---------X---8---10---8------------|
G|-9---9---9---9--------9----9---9---9---9---7----9----|-9---9---9---9--------9---------------------9---9----|
D|-----------------------------------------------------|-----------------------------------------------------|
A|-----------------------------------------------------|-----------------------------------------------------|
E|-----------------------------------------------------|-----------------------------------------------------|

E|-----------------------------------------------------|-----------------------------------------------------|
B|-----------------8-----------------------------------|-----------------8-----------------------------------|
G|-9---9---9---9--------9----9---9---9---9---7----9----|-9---9---9---9--------9--------------------7---------|
D|-----------------------------------------------------|---------------------------9---9---9---9--------9----|
A|-----------------------------------------------------|-----------------------------------------------------|
E|-----------------------------------------------------|-----------------------------------------------------|

E|-----------------------------------------------------|-----------------------------------------------------|
B|-----------------8-----------------------------------|-----------------8-----------------------------------|
G|-9---9---9---9--------9----9---9---9---9---7----9----|-9---9---9---9--------9--------------------7---------|
D|-----------------------------------------------------|---------------------------9---9---9---9--------9----|
A|-----------------------------------------------------|-----------------------------------------------------|
E|-----------------------------------------------------|-----------------------------------------------------|

E|-----------------------------------------------------|-----------------------------------------------------|
B|-----------------8-----------------------------------|-----------------8-----------------------------------|
G|-9---9---9---9--------9----9---9---9---9---7----9----|-9---9---9---9--------9--------------------7---------|
D|-----------------------------------------------------|---------------------------9---9---9---9--------9----|
A|-----------------------------------------------------|-----------------------------------------------------|
E|-----------------------------------------------------|-----------------------------------------------------|

E|-----------------------------------------------------|---------|
B|-----------------8-----------------------------------|---------|
G|-9---9---9---9--------9----9---9---9---9---7----9----|-%-------|
D|-----------------------------------------------------|-%-------|
A|-----------------------------------------------------|---------|
E|-----------------------------------------------------|---------|
Iron Maiden - Massacre (2)
Iron Maiden - Massacre (2).gp3