Iron Maiden - MontsÇgur (2)

Iron Maiden



Title: Montsegr
Album: Dance of Death
Artist: Iron Maiden
Author: Gers - Harris - Dickinson

Track 1: Guitar 1
E|-------|-------------------------------------------------------------|-------------------------------------------------------------|
B|-------|-------------------------------------------------------------|-------------------------------------------------------------|
G|-------|--------------------------------------------------------%----|-------------------------------------------------------------|
D|-------|--------------------------------------------------------%----|-------------------------------------------------------------|
A|-------|-------------------------------------------------------------|----------------------------------------------5----3----2----|
E|-7-----|-0----0----0----2----0----0----3----0----0----5----7---------|-0----0----0----2----0----0----3----0----0-------------------|

E|-------------------------------------------------------------|-------------------------------------------------------------|
B|-------------------------------------------------------------|-------------------------------------------------------------|
G|--------------------------------------------------------%----|-------------------------------------------------------------|
D|--------------------------------------------------------%----|-------------------------------------------------------------|
A|-------------------------------------------------------------|-5----5----5----3----3----3----2----5----3----2--------------|
E|-0----0----0----2----0----0----3----0----0----5----7---------|---------------------------------------------------5----3----|

E|-------------------------------------------------------------|-------------------------------------------------------------|
B|-------------------------------------------------------------|-------------------------------------------------------------|
G|--------------------------------------------------------%----|-------------------------------------------------------------|
D|--------------------------------------------------------%----|-------------------------------------------------------------|
A|-------------------------------------------------------------|----------------------------------------------5----3----2----|
E|-0----0----0----2----0----0----3----0----0----5----7---------|-0----0----0----2----0----0----3----0----0-------------------|

E|-------------------------------------------------------------|-------------------------------------------------------------|
B|-------------------------------------------------------------|-------------------------------------------------------------|
G|--------------------------------------------------------%----|-------------------------------------------------------------|
D|--------------------------------------------------------%----|-------------------------------------------------------------|
A|-------------------------------------------------------------|-5----5----5----3----3----3----2----5----3----2--------------|
E|-0----0----0----2----0----0----3----0----0----5----7---------|---------------------------------------------------5----3----|

E|---------------|---------------|---------------|---------|---------------|---------------|
B|---------------|---------------|---------------|---------|---------------|---------------|
G|---------------|--------5------|-5------7------|---------|---------------|--------5------|
D|-2------4------|-5------5------|-5------7------|-2-------|-2------4------|-5------5------|
A|-2------4------|-5------3------|-3------5------|-2-------|-2------4------|-5------3------|
E|-0------2------|-3-------------|---------------|-0-------|-0------2------|-3-------------|

E|---------------|---------|-----------------------------------------------|-----------------------------------------------|
B|---------------|---------|-----------------------------------------------|-----------------------------------------------|
G|-5------7------|---------|-----------%----X---X-------------%----X---X---|-----------%----X---X-------------%----X---X---|
D|-5------7------|-2-------|-----------%----X---X-------------%----X---X---|-----------%----X---X---5----5----%----X---X---|
A|-3------5------|-2-------|-2----2---------X---X---4----4---------X---X---|-5----5---------X---X---3----3---------X---X---|
E|---------------|-0-------|-0----0-----------------2----2-----------------|-3----3----------------------------------------|

E|-----------------------------------------------|----------------------------------|
B|-----------------------------------------------|----------------------------------|
G|-----------%----X---X-------------%----X---X---|-------X----X----X----------------|
D|-5----5----%----X---X---7----7----%----X---X---|-9-----X----X----X----9----7------|
A|-3----3---------X---X---5----5---------X---X---|-7-----X----X----X----7----5------|
E|-----------------------------------------------|----------------------------------|

E|-----------------------------------------------|-----------------------------------------------|
B|-----------------------------------------------|-----------------------------------------------|
G|-----------%----X---X-------------%----X---X---|-----------%----X---X-------------%----X---X---|
D|-----------%----X---X-------------%----X---X---|-----------%----X---X---5----5----%----X---X---|
A|-2----2---------X---X---4----4---------X---X---|-5----5---------X---X---3----3---------X---X---|
E|-0----0-----------------2----2-----------------|-3----3----------------------------------------|

E|-----------------------------------------------|----------------------------------|
B|-----------------------------------------------|----------------------------------|
G|-----------%----X---X-------------%----X---X---|-------X----X----X----------------|
D|-5----5----%----X---X---7----7----%----X---X---|-9-----X----X----X----9----7------|
A|-3----3---------X---X---5----5---------X---X---|-7-----X----X----X----7----5------|
E|-----------------------------------------------|----------------------------------|

E|---------------|---------|---------------|---------|---------------|---------|---------------|
B|---------------|---------|---------------|---------|---------------|---------|---------------|
G|-9------7------|-5-------|-5------7------|-9-------|---------4-----|-2-------|-7-------------|
D|-9------7------|-5-------|-5------7------|-9-------|-2-------4-----|-2-------|-7-------5-----|
A|-7------5------|-3-------|-3------5------|-7-------|-2-------2-----|-0-------|-5-------5-----|
E|---------------|---------|---------------|---------|-0-------------|---------|---------3-----|

E|---------|---------------|---------------|---------------|---------|---------------|
B|---------|---------------|---------------|---------------|---------|---------------|
G|-9-------|---------------|--------5------|-5------7------|---------|---------------|
D|-9-------|-2------4------|-5------5------|-5------7------|-2-------|-2------4------|
A|-7-------|-2------4------|-5------3------|-3------5------|-2-------|-2------4------|
E|---------|-0------2------|-3-------------|---------------|-0-------|-0------2------|

E|---------------|---------------|---------|-----------------------------------------------|
B|---------------|---------------|---------|-----------------------------------------------|
G|--------5------|-5------7------|---------|-----------%----X---X-------------%----X---X---|
D|-5------5------|-5------7------|-2-------|-----------%----X---X-------------%----X---X---|
A|-5------3------|-3------5------|-2-------|-2----2---------X---X---4----4---------X---X---|
E|-3-------------|---------------|-0-------|-0----0-----------------2----2-----------------|

E|-----------------------------------------------|-----------------------------------------------|
B|-----------------------------------------------|-----------------------------------------------|
G|-----------%----X---X-------------%----X---X---|-----------%----X---X-------------%----X---X---|
D|-----------%----X---X---5----5----%----X---X---|-5----5----%----X---X---7----7----%----X---X---|
A|-5----5---------X---X---3----3---------X---X---|-3----3---------X---X---5----5---------X---X---|
E|-3----3----------------------------------------|-----------------------------------------------|

E|----------------------------------|-----------------------------------------------|
B|----------------------------------|-----------------------------------------------|
G|-------X----X----X----------------|-----------%----X---X-------------%----X---X---|
D|-9-----X----X----X----9----7------|-----------%----X---X-------------%----X---X---|
A|-7-----X----X----X----7----5------|-2----2---------X---X---4----4---------X---X---|
E|----------------------------------|-0----0-----------------2----2-----------------|

E|-----------------------------------------------|-----------------------------------------------|
B|-----------------------------------------------|-----------------------------------------------|
G|-----------%----X---X-------------%----X---X---|-----------%----X---X-------------%----X---X---|
D|-----------%----X---X---5----5----%----X---X---|-5----5----%----X---X---7----7----%----X---X---|
A|-5----5---------X---X---3----3---------X---X---|-3----3---------X---X---5----5---------X---X---|
E|-3----3----------------------------------------|-----------------------------------------------|

E|----------------------------------|---------------|---------|---------------|---------|
B|----------------------------------|---------------|---------|---------------|---------|
G|-------X----X----X----------------|-9------7------|-5-------|-5------7------|-9-------|
D|-9-----X----X----X----9----7------|-9------7------|-5-------|-5------7------|-9-------|
A|-7-----X----X----X----7----5------|-7------5------|-3-------|-3------5------|-7-------|
E|----------------------------------|---------------|---------|---------------|---------|

E|---------------|---------|---------------|---------|-------------------------------------------------------------|
B|---------------|---------|---------------|---------|-------------------------------------------------------------|
G|---------4-----|-2-------|-7-------------|-9-------|--------------------------------------------------------%----|
D|-2-------4-----|-2-------|-7-------5-----|-9-------|--------------------------------------------------------%----|
A|-2-------2-----|-0-------|-5-------5-----|-7-------|-------------------------------------------------------------|
E|-0-------------|---------|---------3-----|---------|-0----0----0----2----0----0----3----0----0----5----7---------|

E|-------------------------------------------------------------|-------------------------------------------------------------|
B|-------------------------------------------------------------|-------------------------------------------------------------|
G|-------------------------------------------------------------|--------------------------------------------------------%----|
D|-------------------------------------------------------------|--------------------------------------------------------%----|
A|----------------------------------------------5----3----2----|-------------------------------------------------------------|
E|-0----0----0----2----0----0----3----0----0-------------------|-0----0----0----2----0----0----3----0----0----5----7---------|

E|-------------------------------------------------------------|-------------------------------------------------------------|
B|-------------------------------------------------------------|-------------------------------------------------------------|
G|-------------------------------------------------------------|--------------------------------------------------------%----|
D|-------------------------------------------------------------|--------------------------------------------------------%----|
A|-5----5----5----3----3----3----2----5----3----2--------------|-------------------------------------------------------------|
E|---------------------------------------------------5----3----|-0----0----0----2----0----0----3----0----0----5----7---------|

E|-------------------------------------------------------------|-------------------------------------------------------------|
B|-------------------------------------------------------------|-------------------------------------------------------------|
G|-------------------------------------------------------------|--------------------------------------------------------%----|
D|-------------------------------------------------------------|--------------------------------------------------------%----|
A|----------------------------------------------5----3----2----|-------------------------------------------------------------|
E|-0----0----0----2----0----0----3----0----0-------------------|-0----0----0----2----0----0----3----0----0----5----7---------|

E|-------------------------------------------------------------|---------------|---------------|
B|-------------------------------------------------------------|---------------|---------------|
G|-------------------------------------------------------------|---------------|--------5------|
D|-------------------------------------------------------------|-2------4------|-5------5------|
A|-5----5----5----3----3----3----2----5----3----2--------------|-2------4------|-5------3------|
E|---------------------------------------------------5----3----|-0------2------|-3-------------|

E|---------------|---------|---------------|---------------|---------------|---------|
B|---------------|---------|---------------|---------------|---------------|---------|
G|-5------7------|---------|---------------|--------5------|-5------7------|---------|
D|-5------7------|-2-------|-2------4------|-5------5------|-5------7------|-2-------|
A|-3------5------|-2-------|-2------4------|-5------3------|-3------5------|-2-------|
E|---------------|-0-------|-0------2------|-3-------------|---------------|-0-------|

E|---------------|---------------|---------------|---------|---------------|---------------|
B|---------------|---------------|---------------|---------|---------------|---------------|
G|---------------|--------5------|-5------7------|---------|---------------|--------5------|
D|-2------4------|-5------5------|-5------7------|-2-------|-2------4------|-5------5------|
A|-2------4------|-5------3------|-3------5------|-2-------|-2------4------|-5------3------|
E|-0------2------|-3-------------|---------------|-0-------|-0------2------|-3-------------|

E|---------------|---------|---------------------------------------------|--------------------------|
B|---------------|---------|---------------------------------------------|--------------------------|
G|-5------7------|---------|-9-----9-----X----X----7-----7-----X----X----|-5-----5-----5-----5------|
D|-5------7------|-2-------|-9-----9-----X----X----7-----7-----X----X----|-5-----5-----5-----5------|
A|-3------5------|-2-------|-7-----7-----X----X----5-----5-----X----X----|-3-----3-----3-----3------|
E|---------------|-0-------|---------------------------------------------|--------------------------|

E|---------------------------------------------|--------------------------|---------------------------------------------|
B|---------------------------------------------|--------------------------|---------------------------------------------|
G|-5-----5-----X----X----7-----7-----X----X----|-9-----9-----9-----9------|-9-----9-----X----X----7-----7-----X----X----|
D|-5-----5-----X----X----7-----7-----X----X----|-9-----9-----9-----9------|-9-----9-----X----X----7-----7-----X----X----|
A|-3-----3-----X----X----5-----5-----X----X----|-7-----7-----7-----7------|-7-----7-----X----X----5-----5-----X----X----|
E|---------------------------------------------|--------------------------|---------------------------------------------|

E|--------------------------|---------------------------------------------|--------------------------|
B|--------------------------|---------------------------------------------|--------------------------|
G|-5-----5-----5-----5------|-5-----5-----X----X----7-----7-----X----X----|-9-----9-----9-----9------|
D|-5-----5-----5-----5------|-5-----5-----X----X----7-----7-----X----X----|-9-----9-----9-----9------|
A|-3-----3-----3-----3------|-3-----3-----X----X----5-----5-----X----X----|-7-----7-----7-----7------|
E|--------------------------|---------------------------------------------|--------------------------|

E|---------------------------------------------|--------------------------|---------------------------------------------|
B|---------------------------------------------|--------------------------|---------------------------------------------|
G|-9-----9-----X----X----7-----7-----X----X----|-5-----5-----5-----5------|-5-----5-----X----X----7-----7-----X----X----|
D|-9-----9-----X----X----7-----7-----X----X----|-5-----5-----5-----5------|-5-----5-----X----X----7-----7-----X----X----|
A|-7-----7-----X----X----5-----5-----X----X----|-3-----3-----3-----3------|-3-----3-----X----X----5-----5-----X----X----|
E|---------------------------------------------|--------------------------|---------------------------------------------|

E|--------------------------|---------|---------|---------|------------------------|
B|--------------------------|---------|---------|---------|------------------------|
G|-9-----9-----9-----9------|---------|---------|---------|------------------------|
D|-9-----9-----9-----9------|-2-------|-5-------|-2-------|-2-----2----7------7----|
A|-7-----7-----7-----7------|-2-------|-3-------|-2-------|-2-----2----5------5----|
E|--------------------------|-0-------|---------|-0-------|-0-----0----------------|

E|---------|---------|---------|------------------------|---------|---------|---------|
B|---------|---------|---------|------------------------|---------|---------|---------|
G|---------|---------|---------|------------------------|---------|---------|---------|
D|-2-------|-5-------|-2-------|-2-----2----7------7----|-2-------|-5-------|-2-------|
A|-2-------|-3-------|-2-------|-2-----2----5------5----|-2-------|-3-------|-2-------|
E|-0-------|---------|-0-------|-0-----0----------------|-0-------|---------|-0-------|

E|------------------------|---------|---------|---------|------------------------|---------------|
B|------------------------|---------|---------|---------|------------------------|---------------|
G|------------------------|---------|---------|---------|------------------------|---------4-----|
D|-2-----2----7------7----|-2-------|-5-------|-2-------|-2-----2----7------7----|-2-------4-----|
A|-2-----2----5------5----|-2-------|-3-------|-2-------|-2-----2----5------5----|-2-------2-----|
E|-0-----0----------------|-0-------|---------|-0-------|-0-----0----------------|-0-------------|

E|---------|---------------|---------|---------------|---------|---------------|---------|
B|---------|---------------|---------|---------------|---------|---------------|---------|
G|-2-------|-7-------------|-9-------|---------4-----|-2-------|-7-------------|-9-------|
D|-2-------|-7-------5-----|-9-------|-2-------4-----|-2-------|-7-------5-----|-9-------|
A|-0-------|-5-------5-----|-7-------|-2-------2-----|-0-------|-5-------5-----|-7-------|
E|---------|---------3-----|---------|-0-------------|---------|---------3-----|---------|

E|---------------|---------|---------------|---------|---------------|---------|---------------|
B|---------------|---------|---------------|---------|---------------|---------|---------------|
G|---------------|---------|---------------|---------|---------------|---------|---------------|
D|---------4-----|-2-------|-7-------------|---------|---------4-----|-2-------|-7-------------|
A|-2-------2-----|-0-------|-5-------5-----|-2-------|-2-------2-----|-0-------|-5-------------|
E|-0-------------|---------|---------3-----|-0-------|-0-------------|---------|---------3-----|

E|---------|---------|---------|
B|---------|---------|---------|
G|---------|---------|---------|
D|---------|---------|---------|
A|-2-------|-2-------|-2-------|
E|-0-------|-0-------|-0-------|
Iron Maiden - MontsÇgur (2)
Iron Maiden - MontsÇgur (2).gp3