Iron Maiden - Montsegur

Iron Maiden



Title: Montsegur
Album: Dance of Death
Artist: Iron Maiden
Author: 

Track 1: Dist. Guitar 1
E|-------------------------------------------------|-------------------------------------------------|
B|-------------------------------------------------|-------------------------------------------------|
G|---------------------------------------------%---|-------------------------------------------------|
D|---------------------------------------------%---|-------------------------------------------------|
A|-------------------------------------------------|-------------------------------------2---3---2---|
E|-0---0---0---3---0---0---2---0---0---2---3-------|-0---0---0---3---0---0---2---0---0---------------|

E|-------------------------------------------------|-------------------------------------------------|
B|-------------------------------------------------|-------------------------------------------------|
G|---------------------------------------------%---|-------------------------------------------------|
D|---------------------------------------------%---|-------------------------------------------------|
A|-------------------------------------------------|-5---5---5---3---3---3---2---5---3---2---0-------|
E|-0---0---0---3---0---0---2---0---0---2---3-------|---------------------------------------------3---|

E|-------------------------------------------------|-------------------------------------------------|
B|-------------------------------------------------|-------------------------------------------------|
G|---------------------------------------------%---|-------------------------------------------------|
D|---------------------------------------------%---|-------------------------------------------------|
A|-------------------------------------------------|-------------------------------------2---3---2---|
E|-0---0---0---3---0---0---2---0---0---2---3-------|-0---0---0---3---0---0---2---0---0---------------|

E|-------------------------------------------------|-------------------------------------------------|
B|-------------------------------------------------|-------------------------------------------------|
G|---------------------------------------------%---|-------------------------------------------------|
D|---------------------------------------------%---|-------------------------------------------------|
A|-------------------------------------------------|-5---5---5---3---3---3---2---5---3---2---0-------|
E|-0---0---0---3---0---0---2---0---0---2---3-------|---------------------------------------------3---|

E|-------------------------------------------------|-------------------------------------------------|
B|-------------------------------------------------|-------------------------------------------------|
G|---------------------------------------------%---|-------------------------------------------------|
D|---------------------------------------------%---|-------------------------------------------------|
A|-------------------------------------------------|-------------------------------------2---3---2---|
E|-0---0---0---3---0---0---2---0---0---2---3-------|-0---0---0---3---0---0---2---0---0---------------|

E|-------------------------------------------------|-------------------------------------------------|
B|-------------------------------------------------|-------------------------------------------------|
G|---------------------------------------------%---|-------------------------------------------------|
D|---------------------------------------------%---|-------------------------------------------------|
A|-------------------------------------------------|-5---5---5---3---3---3---2---5---3---2---0-------|
E|-0---0---0---3---0---0---2---0---0---2---3-------|---------------------------------------------3---|

E|-------------------------------------------------|-------------------------------------------------|
B|-------------------------------------------------|-------------------------------------------------|
G|---------------------------------------------%---|-------------------------------------------------|
D|---------------------------------------------%---|-------------------------------------------------|
A|-------------------------------------------------|-------------------------------------2---3---2---|
E|-0---0---0---3---0---0---2---0---0---2---3-------|-0---0---0---3---0---0---2---0---0---------------|

E|-------------------------------------------------|-------------------------------------------------|
B|-------------------------------------------------|-------------------------------------------------|
G|---------------------------------------------%---|-------------------------------------------------|
D|---------------------------------------------%---|-------------------------------------------------|
A|-------------------------------------------------|-5---5---5---3---3---3---2---5---3---2---0-------|
E|-0---0---0---3---0---0---2---0---0---2---3-------|---------------------------------------------3---|

E|-------------------------------|-------------------------------|-------------------------------|
B|-------------------------------|-------------------------------|-------------------------------|
G|-------------------------------|--------------------------5----|-------------------------------|
D|-----------2--------------4----|-----------5---------5---------|-----------4--------------5----|
A|------2--------------5---------|------5---------3--------------|------5--------------5---------|
E|-0--------------2--------------|-3-----------------------------|-2--------------3--------------|

E|---------------------|-------------------------------|-------------------------------|
B|---------------------|-------------------------------|-------------------------------|
G|---------------------|-------------------------------|--------------------------5----|
D|----------2---2------|-----------2--------------4----|-----------5---------5---------|
A|---------------------|------2--------------5---------|------5---------3--------------|
E|-0----0--------------|-0--------------2--------------|-3-----------------------------|

E|-------------------------------|---------------------|-------------------------------|
B|-------------------------------|---------------------|-------------------------------|
G|-------------------------------|---------------------|-------------------------------|
D|-----------4--------------5----|----------2---2------|-2----2----2----4----4----4----|
A|------5--------------5---------|---------------------|-2----2----2----5----5----5----|
E|-2--------------3--------------|-0----0--------------|-0----0----0----2----2----2----|

E|-------------------------------|-------------------------------|------------------------------|
B|-------------------------------|-------------------------------|------------------------------|
G|----------------5----5----5----|-5----5----5----7----7----7----|-9----9----9----9---7---7-----|
D|-5----5----5----5----5----5----|-5----5----5----7----7----7----|-9----9----9----9---7---7-----|
A|-5----5----5----3----3----3----|-3----3----3----5----5----5----|-7----7----7----7---5---5-----|
E|-3----3----3-------------------|-------------------------------|------------------------------|

E|-------------------------------|-------------------------------|-------------------------------|
B|-------------------------------|-------------------------------|-------------------------------|
G|-------------------------------|----------------5----5----5----|-5----5----5----7----7----7----|
D|-2----2----2----4----4----4----|-5----5----5----5----5----5----|-5----5----5----7----7----7----|
A|-2----2----2----5----5----5----|-5----5----5----3----3----3----|-3----3----3----5----5----5----|
E|-0----0----0----2----2----2----|-3----3----3-------------------|-------------------------------|

E|------------------------------|-------------------------------|---------------------------|
B|------------------------------|-7---------7----8---------8----|-10---8----7---------------|
G|-9----9----9----9---7---7-----|------9--------------9---------|----------------9----9-----|
D|-9----9----9----9---7---7-----|-------------------------------|---------------------------|
A|-7----7----7----7---5---5-----|-------------------------------|---------------------------|
E|------------------------------|-------------------------------|---------------------------|

E|-------------------------------|-7-------------------------|-------------------------------|
B|-7---------7----8---------8----|------8--------------------|-7---------7----8---------8----|
G|------9--------------9---------|-----------9----9----9-----|------9--------------9---------|
D|-------------------------------|---------------------------|-------------------------------|
A|-------------------------------|---------------------------|-------------------------------|
E|-------------------------------|---------------------------|-------------------------------|

E|---------------------------|-------------------------------|-7-------------------------|
B|-10---8----7---------------|-7---------7----8---------8----|------8--------------------|
G|----------------9----9-----|------9--------------9---------|-----------9----9----9-----|
D|---------------------------|-------------------------------|---------------------------|
A|---------------------------|-------------------------------|---------------------------|
E|---------------------------|-------------------------------|---------------------------|

E|-------------------------------|---------------------------|-------------------------------|
B|-7---------7----8---------8----|-10---8----7---------------|-7---------7----8---------8----|
G|------9--------------9---------|----------------9----9-----|------9--------------9---------|
D|-------------------------------|---------------------------|-------------------------------|
A|-------------------------------|---------------------------|-------------------------------|
E|-------------------------------|---------------------------|-------------------------------|

E|-7-------------------------|-------------------------------|---------------------------|
B|------8--------------------|-7---------7----8---------8----|-10---8----7---------------|
G|-----------9----9----9-----|------9--------------9---------|----------------9----9-----|
D|---------------------------|-------------------------------|---------------------------|
A|---------------------------|-------------------------------|---------------------------|
E|---------------------------|-------------------------------|---------------------------|

E|-------------------------------|-7-------------------------|-------------------------------|
B|-7---------7----8---------8----|------8--------------------|------7--------------7----9----|
G|------9--------------9---------|-----------9----9----9-----|-9---------9----9--------------|
D|-------------------------------|---------------------------|-------------------------------|
A|-------------------------------|---------------------------|-------------------------------|
E|-------------------------------|---------------------------|-------------------------------|

E|------7--------------------|-------------------------------|---------------------------|
B|-10--------10---7----7-----|-------------------------------|-9----10---9---------------|
G|---------------------------|-7----9----7----7----7----9----|----------------9----9-----|
D|---------------------------|-------------------------------|---------------------------|
A|---------------------------|-------------------------------|---------------------------|
E|---------------------------|-------------------------------|---------------------------|

E|-------------------------------|------7--------------------|-------------------------------|
B|------7--------------7----9----|-10--------10---7----7-----|-------------------------------|
G|-9---------9----9--------------|---------------------------|-7----9----7----7----7----9----|
D|-------------------------------|---------------------------|-------------------------------|
A|-------------------------------|---------------------------|-------------------------------|
E|-------------------------------|---------------------------|-------------------------------|

E|---------------------------|-------------------------------|------7--------------------|
B|-9----10---9---------------|------7--------------7----9----|-10--------10---7----7-----|
G|----------------9----9-----|-9---------9----9--------------|---------------------------|
D|---------------------------|-------------------------------|---------------------------|
A|---------------------------|-------------------------------|---------------------------|
E|---------------------------|-------------------------------|---------------------------|

E|-------------------------------|---------------------------|-------------------------------|
B|-------------------------------|-9----10---9---------------|------7--------------7----9----|
G|-7----9----7----7----7----9----|----------------9----9-----|-9---------9----9--------------|
D|-------------------------------|---------------------------|-------------------------------|
A|-------------------------------|---------------------------|-------------------------------|
E|-------------------------------|---------------------------|-------------------------------|

E|------7--------------------|-------------------------------|---------------------------|
B|-10--------10---7----7-----|-------------------------------|-9----10---9---------------|
G|---------------------------|-7----9----7----7----7----9----|----------------9----9-----|
D|---------------------------|-------------------------------|---------------------------|
A|---------------------------|-------------------------------|---------------------------|
E|---------------------------|-------------------------------|---------------------------|

E|-------------------------------|-------------------------------|-------------------------------|
B|-------------------------------|-------------------------------|-------------------------------|
G|-------------------------------|--------------------------5----|-------------------------------|
D|-----------2--------------4----|-----------5---------5---------|-----------4--------------5----|
A|------2--------------5---------|------5---------3--------------|------5--------------5---------|
E|-0--------------2--------------|-3-----------------------------|-2--------------3--------------|

E|---------------------|-------------------------------|-------------------------------|
B|---------------------|-------------------------------|-------------------------------|
G|---------------------|-------------------------------|--------------------------5----|
D|----------2---2------|-----------2--------------4----|-----------5---------5---------|
A|----------2---2------|------2--------------5---------|------5---------3--------------|
E|-0----0--------------|-0--------------2--------------|-3-----------------------------|

E|-------------------------------|---------------------|-------------------------------|
B|-------------------------------|---------------------|-------------------------------|
G|-------------------------------|---------------------|-------------------------------|
D|-----------4--------------5----|----------2---2------|-2----2----2----4----4----4----|
A|------5--------------5---------|----------2---2------|-2----2----2----5----5----5----|
E|-2--------------3--------------|-0----0--------------|-0----0----0----2----2----2----|

E|-------------------------------|-------------------------------|------------------------------|
B|-------------------------------|-------------------------------|------------------------------|
G|----------------5----5----5----|-5----5----5----7----7----7----|-9----9----9----9---7---7-----|
D|-5----5----5----5----5----5----|-5----5----5----7----7----7----|-9----9----9----9---7---7-----|
A|-5----5----5----3----3----3----|-3----3----3----5----5----5----|-7----7----7----7---5---5-----|
E|-3----3----3-------------------|-------------------------------|------------------------------|

E|-------------------------------|-------------------------------|-------------------------------|
B|-------------------------------|-------------------------------|-------------------------------|
G|-------------------------------|----------------5----5----5----|-5----5----5----7----7----7----|
D|-2----2----2----4----4----4----|-5----5----5----5----5----5----|-5----5----5----7----7----7----|
A|-2----2----2----5----5----5----|-5----5----5----3----3----3----|-3----3----3----5----5----5----|
E|-0----0----0----2----2----2----|-3----3----3-------------------|-------------------------------|

E|------------------------------|-------------------------------|---------------------------|
B|------------------------------|-7---------7----8---------8----|-10---8----7---------------|
G|-9----9----9----9---7---7-----|------9--------------9---------|----------------9----9-----|
D|-9----9----9----9---7---7-----|-------------------------------|---------------------------|
A|-7----7----7----7---5---5-----|-------------------------------|---------------------------|
E|------------------------------|-------------------------------|---------------------------|

E|-------------------------------|-7-------------------------|-------------------------------|
B|-7---------7----8---------8----|------8--------------------|-7---------7----8---------8----|
G|------9--------------9---------|-----------9----9----9-----|------9--------------9---------|
D|-------------------------------|---------------------------|-------------------------------|
A|-------------------------------|---------------------------|-------------------------------|
E|-------------------------------|---------------------------|-------------------------------|

E|---------------------------|-------------------------------|-7-------------------------|
B|-10---8----7---------------|-7---------7----8---------8----|------8--------------------|
G|----------------9----9-----|------9--------------9---------|-----------9----9----9-----|
D|---------------------------|-------------------------------|---------------------------|
A|---------------------------|-------------------------------|---------------------------|
E|---------------------------|-------------------------------|---------------------------|

E|-------------------------------|---------------------------|-------------------------------|
B|-7---------7----8---------8----|-10---8----7---------------|-7---------7----8---------8----|
G|------9--------------9---------|----------------9----9-----|------9--------------9---------|
D|-------------------------------|---------------------------|-------------------------------|
A|-------------------------------|---------------------------|-------------------------------|
E|-------------------------------|---------------------------|-------------------------------|

E|-7-------------------------|-------------------------------|---------------------------|
B|------8--------------------|-7---------7----8---------8----|-10---8----7---------------|
G|-----------9----9----9-----|------9--------------9---------|----------------9----9-----|
D|---------------------------|-------------------------------|---------------------------|
A|---------------------------|-------------------------------|---------------------------|
E|---------------------------|-------------------------------|---------------------------|

E|-------------------------------|-7-------------------------|-------------------------------|
B|-7---------7----8---------8----|------8--------------------|------7--------------7----9----|
G|------9--------------9---------|-----------9----9----9-----|-9---------9----9--------------|
D|-------------------------------|---------------------------|-------------------------------|
A|-------------------------------|---------------------------|-------------------------------|
E|-------------------------------|---------------------------|-------------------------------|

E|------7--------------------|-------------------------------|---------------------------|
B|-10--------10---7----7-----|-------------------------------|-9----10---9---------------|
G|---------------------------|-7----9----7----7----7----9----|----------------9----9-----|
D|---------------------------|-------------------------------|---------------------------|
A|---------------------------|-------------------------------|---------------------------|
E|---------------------------|-------------------------------|---------------------------|

E|-------------------------------|------7--------------------|-------------------------------|
B|------7--------------7----9----|-10--------10---7----7-----|-------------------------------|
G|-9---------9----9--------------|---------------------------|-7----9----7----7----7----9----|
D|-------------------------------|---------------------------|-------------------------------|
A|-------------------------------|---------------------------|-------------------------------|
E|-------------------------------|---------------------------|-------------------------------|

E|---------------------------|-------------------------------|------7--------------------|
B|-9----10---9---------------|------7--------------7----9----|-10--------10---7----7-----|
G|----------------9----9-----|-9---------9----9--------------|---------------------------|
D|---------------------------|-------------------------------|---------------------------|
A|---------------------------|-------------------------------|---------------------------|
E|---------------------------|-------------------------------|---------------------------|

E|-------------------------------|---------------------------|-------------------------------|
B|-------------------------------|-9----10---9---------------|------7--------------7----9----|
G|-7----9----7----7----7----9----|----------------9----9-----|-9---------9----9--------------|
D|-------------------------------|---------------------------|-------------------------------|
A|-------------------------------|---------------------------|-------------------------------|
E|-------------------------------|---------------------------|-------------------------------|

E|------7--------------------|-------------------------------|---------------------------|
B|-10--------10---7----7-----|-------------------------------|-9----10---9---------------|
G|---------------------------|-7----9----7----7----7----9----|----------------9----9-----|
D|---------------------------|-------------------------------|---------------------------|
A|---------------------------|-------------------------------|---------------------------|
E|---------------------------|-------------------------------|---------------------------|

E|-------------------------------------------------|-------------------------------------------------|
B|-------------------------------------------------|-------------------------------------------------|
G|---------------------------------------------%---|-------------------------------------------------|
D|---------------------------------------------%---|-------------------------------------------------|
A|-------------------------------------------------|-------------------------------------2---3---2---|
E|-0---0---0---3---0---0---2---0---0---2---3-------|-0---0---0---3---0---0---2---0---0---------------|

E|-------------------------------------------------|-------------------------------------------------|
B|-------------------------------------------------|-------------------------------------------------|
G|---------------------------------------------%---|-------------------------------------------------|
D|---------------------------------------------%---|-------------------------------------------------|
A|-------------------------------------------------|-5---5---5---3---3---3---2---5---3---2---0-------|
E|-0---0---0---3---0---0---2---0---0---2---3-------|---------------------------------------------3---|

E|-------------------------------------------------|-------------------------------------------------|
B|-------------------------------------------------|-------------------------------------------------|
G|---------------------------------------------%---|-------------------------------------------------|
D|---------------------------------------------%---|-------------------------------------------------|
A|-------------------------------------------------|-------------------------------------2---3---2---|
E|-0---0---0---3---0---0---2---0---0---2---3-------|-0---0---0---3---0---0---2---0---0---------------|

E|-------------------------------------------------|-------------------------------------------------|
B|-------------------------------------------------|-------------------------------------------------|
G|---------------------------------------------%---|-------------------------------------------------|
D|---------------------------------------------%---|-------------------------------------------------|
A|-------------------------------------------------|-5---5---5---3---3---3---2---5---3---2---0-------|
E|-0---0---0---3---0---0---2---0---0---2---3-------|---------------------------------------------3---|

E|-------------------------------------------------|-------------------------------------------------|
B|-------------------------------------------------|-------------------------------------------------|
G|---------------------------------------------%---|-------------------------------------------------|
D|---------------------------------------------%---|-------------------------------------------------|
A|-------------------------------------------------|-------------------------------------2---3---2---|
E|-0---0---0---3---0---0---2---0---0---2---3-------|-0---0---0---3---0---0---2---0---0---------------|

E|-------------------------------------------------|-------------------------------------------------|
B|-------------------------------------------------|-------------------------------------------------|
G|---------------------------------------------%---|-------------------------------------------------|
D|---------------------------------------------%---|-------------------------------------------------|
A|-------------------------------------------------|-5---5---5---3---3---3---2---5---3---2---0-------|
E|-0---0---0---3---0---0---2---0---0---2---3-------|---------------------------------------------3---|

E|-------------------------------------------------|-------------------------------------------------|
B|-------------------------------------------------|-------------------------------------------------|
G|---------------------------------------------%---|-------------------------------------------------|
D|---------------------------------------------%---|-------------------------------------------------|
A|-------------------------------------------------|-------------------------------------2---3---2---|
E|-0---0---0---3---0---0---2---0---0---2---3-------|-0---0---0---3---0---0---2---0---0---------------|

E|-------------------------------------------------|-------------------------------------------------|
B|-------------------------------------------------|-------------------------------------------------|
G|---------------------------------------------%---|-------------------------------------------------|
D|---------------------------------------------%---|-------------------------------------------------|
A|-------------------------------------------------|-5---5---5---3---3---3---2---5---3---2---0-------|
E|-0---0---0---3---0---0---2---0---0---2---3-------|---------------------------------------------3---|

E|-----------------------|-----------------------------------------|----------------------------------------|
B|-----------------------|-----------------------------------------|----------------------------------------|
G|-2-----2----2----2-----|-4----2-----------------------------7----|-7-----7----5---4-------4---5---4-------|
D|-----------------------|-----------5--7--5---4--5--5---5---------|--------------------7---------------7---|
A|-----------------------|-----------------------------------------|----------------------------------------|
E|-----------------------|-----------------------------------------|----------------------------------------|

E|-----------------------------------------------------|---------------------------------|
B|-----------------------------------------------------|-15----15---15---15--15--13--12--|
G|-4---5---4-------4---5---4---5---4-------------------|---------------------------------|
D|-------------7-----------------------7---------------|---------------------------------|
A|----------------------------------------7--7---7-----|---------------------------------|
E|-----------------------------------------------------|---------------------------------|

E|-----------------------------------------|-----------------------------------------------------------|
B|-12--13--15--12-13-12--------------------|-----------------------------------------------------------|
G|-----------------------14--12--11--------|-----11-12-11--------11------12--11--12--11-12-11-12-11----|
D|-----------------------------------14----|-14-----------14-12------14-----------------------------14-|
A|-----------------------------------------|-----------------------------------------------------------|
E|-----------------------------------------|-----------------------------------------------------------|

E|--------------------------------|----------------------12--14--|-15---17---15---17---17----|
B|-------------------------15-----|-15----15---15---15-----------|---------------------------|
G|-11-12-14-12-11-12-11-12--------|------------------------------|---------------------------|
D|--------------------------------|------------------------------|---------------------------|
A|--------------------------------|------------------------------|---------------------------|
E|--------------------------------|------------------------------|---------------------------|

E|-17----17--15--14---15--------|---------------------------------|---------------------------------------------------------|
B|-------------------------15---|-15---15--17--17----17---12--0---|-12--0---10--0---7---8---7-------------------------------|
G|------------------------------|---------------------------------|-----------------------------9---7---5---4---5---4-------|
D|------------------------------|---------------------------------|-----------------------------------------------------7---|
A|------------------------------|---------------------------------|---------------------------------------------------------|
E|------------------------------|---------------------------------|---------------------------------------------------------|

E|------------------------------------|-------------------------------------------------------------------------|
B|------------------------------------|-------------------------------------------------------------------------|
G|-4----------------------------------|-------------------------------------------------------------------------|
D|-----7---5---4---5-------4----4-----|-----4---5---4-------4-------4---5---4-------4-------4---5---4-------4---|
A|---------------------7--------------|-7---------------7-------7---------------7-------7---------------7-------|
E|------------------------------------|-------------------------------------------------------------------------|

E|------------------------------------------------|----------------------------------|
B|------------------------------------------------|-10----8----10---8---10--8---7----|
G|-----------------4---5---4----------------------|----------------------------------|
D|-----4---5---7---------------7---5--------------|----------------------------------|
A|-7-----------------------------------7----7-----|----------------------------------|
E|------------------------------------------------|----------------------------------|

E|------------------|---------------------------|-7----------------|----------------------------------|
B|-8----7-----------|-8-----7----10---8----7----|------10---8------|-10----8----10---8---10--8---7----|
G|-----------9------|---------------------------|------------------|----------------------------------|
D|------------------|---------------------------|------------------|----------------------------------|
A|------------------|---------------------------|------------------|----------------------------------|
E|------------------|---------------------------|------------------|----------------------------------|

E|------------------|---------------------------|-7----------------|----------------------------------|
B|-8----7-----------|-8-----7----10---8----7----|------10---8------|-10----8----10---8---10--8---7----|
G|-----------9------|---------------------------|------------------|----------------------------------|
D|------------------|---------------------------|------------------|----------------------------------|
A|------------------|---------------------------|------------------|----------------------------------|
E|------------------|---------------------------|------------------|----------------------------------|

E|------------------|---------------------------|-7----------------|----------------------------------|
B|-8----7-----------|-8-----7----10---8----7----|------10---8------|-10----8----10---8---10--8---7----|
G|-----------9------|---------------------------|------------------|----------------------------------|
D|------------------|---------------------------|------------------|----------------------------------|
A|------------------|---------------------------|------------------|----------------------------------|
E|------------------|---------------------------|------------------|----------------------------------|

E|------------------|---------------------------|-7----------------|------------------------------------|
B|-8----7-----------|-8-----7----10---8----7----|------10---8------|-7---8---7-----------7---7----------|
G|-----------9------|---------------------------|------------------|-------------9---9------------9-----|
D|------------------|---------------------------|------------------|------------------------------------|
A|------------------|---------------------------|------------------|------------------------------------|
E|------------------|---------------------------|------------------|------------------------------------|

E|------------------------------------|------------------------------------|---------------------------|
B|------------------------------------|-7---8---7-----------7---7----------|-8----7----10---7----7-----|
G|-5---7---5---4---4---7---7----5-----|-------------9---9------------9-----|---------------------------|
D|------------------------------------|------------------------------------|---------------------------|
A|------------------------------------|------------------------------------|---------------------------|
E|------------------------------------|------------------------------------|---------------------------|

E|------------------------------------|------------------------------------|------------------------------------|
B|-7---8---7-----------7---7----------|---------------------10--10---10----|-7---8---7-----------7---7----------|
G|-------------9---9------------9-----|-5---7---5---4---4------------------|-------------9---9------------9-----|
D|------------------------------------|------------------------------------|------------------------------------|
A|------------------------------------|------------------------------------|------------------------------------|
E|------------------------------------|------------------------------------|------------------------------------|

E|---------------------------|------------------------------------|------------------------------------|
B|-8----7----10---7----7-----|-7---8---7-----------7---7----------|---------------------10--10---10----|
G|---------------------------|-------------9---9------------9-----|-5---7---5---4---4------------------|
D|---------------------------|------------------------------------|------------------------------------|
A|---------------------------|------------------------------------|------------------------------------|
E|---------------------------|------------------------------------|------------------------------------|

E|------------------------------------|---------------------------|------------------------------------|
B|-7---8---7-----------7---7----------|-8----7----10---7----7-----|-7---8---7-----------7---7----------|
G|-------------9---9------------9-----|---------------------------|-------------9---9------------9-----|
D|------------------------------------|---------------------------|------------------------------------|
A|------------------------------------|---------------------------|------------------------------------|
E|------------------------------------|---------------------------|------------------------------------|

E|------------------------------------|------------------------------------|---------------------------|
B|---------------------10--10---10----|-7---8---7-----------7---7----------|-8----7----10---7----7-----|
G|-5---7---5---4---4------------------|-------------9---9------------9-----|---------------------------|
D|------------------------------------|------------------------------------|---------------------------|
A|------------------------------------|------------------------------------|---------------------------|
E|------------------------------------|------------------------------------|---------------------------|

E|-------------------------------|------7--------------------|-------------------------------|
B|------7--------------7----9----|-10--------10---7----7-----|-------------------------------|
G|-9---------9----9--------------|---------------------------|-7----9----7----7----7----9----|
D|-------------------------------|---------------------------|-------------------------------|
A|-------------------------------|---------------------------|-------------------------------|
E|-------------------------------|---------------------------|-------------------------------|

E|---------------------------|-------------------------------|------7--------------------|
B|-9----10---9---------------|------7--------------7----9----|-10--------10---7----7-----|
G|----------------9----9-----|-9---------9----9--------------|---------------------------|
D|---------------------------|-------------------------------|---------------------------|
A|---------------------------|-------------------------------|---------------------------|
E|---------------------------|-------------------------------|---------------------------|

E|-------------------------------|---------------------------|-------------------------------|
B|-------------------------------|-9----10---9---------------|------7--------------7----9----|
G|-7----9----7----7----7----9----|----------------9----9-----|-9---------9----9--------------|
D|-------------------------------|---------------------------|-------------------------------|
A|-------------------------------|---------------------------|-------------------------------|
E|-------------------------------|---------------------------|-------------------------------|

E|------7--------------------|-------------------------------|---------------------------|
B|-10--------10---7----7-----|-------------------------------|-9----10---9---------------|
G|---------------------------|-7----9----7----7----7----9----|----------------9----9-----|
D|---------------------------|-------------------------------|---------------------------|
A|---------------------------|-------------------------------|---------------------------|
E|---------------------------|-------------------------------|---------------------------|

E|-------------------------------|------7--------------------|-------------------------------|
B|------7--------------7----9----|-10--------10---7----7-----|-------------------------------|
G|-9---------9----9--------------|---------------------------|-7----9----7----7----7----9----|
D|-------------------------------|---------------------------|-------------------------------|
A|-------------------------------|---------------------------|-------------------------------|
E|-------------------------------|---------------------------|-------------------------------|

E|---------------------------|-------------------------------|------7--------------------|
B|-9----10---9---------------|------7--------------7----9----|-10--------10---7----7-----|
G|----------------9----9-----|-9---------9----9--------------|---------------------------|
D|---------------------------|-------------------------------|---------------------------|
A|---------------------------|-------------------------------|---------------------------|
E|---------------------------|-------------------------------|---------------------------|

E|-------------------------------|---------------------------|-------------------------------|
B|-------------------------------|-9----10---9---------------|------7--------------7----9----|
G|-7----9----7----7----7----9----|----------------9----9-----|-9---------9----9--------------|
D|-------------------------------|---------------------------|-------------------------------|
A|-------------------------------|---------------------------|-------------------------------|
E|-------------------------------|---------------------------|-------------------------------|

E|------7--------------------|-------------------------------|---------------------------|
B|-10--------10---7----7-----|-------------------------------|-9----10---9---------------|
G|---------------------------|-7----9----7----7----7----9----|----------------9----9-----|
D|---------------------------|-------------------------------|---------------------------|
A|---------------------------|-------------------------------|---------------------------|
E|---------------------------|-------------------------------|---------------------------|

E|-------------------------------|------7--------------------|-------------------------------|
B|------7--------------7----9----|-10--------10---7----7-----|-------------------------------|
G|-9---------9----9--------------|---------------------------|-7----9----7----7----7----9----|
D|-------------------------------|---------------------------|-------------------------------|
A|-------------------------------|---------------------------|-------------------------------|
E|-------------------------------|---------------------------|-------------------------------|

E|---------------------------|-------------------------------|------7--------------------|
B|-9----10---9---------------|------7--------------7----9----|-10--------10---7----7-----|
G|----------------9----9-----|-9---------9----9--------------|---------------------------|
D|---------------------------|-------------------------------|---------------------------|
A|---------------------------|-------------------------------|---------------------------|
E|---------------------------|-------------------------------|---------------------------|

E|-------------------------------|---------------------------|------------------|---------|
B|-------------------------------|-9----10---9---------------|------------------|---------|
G|-7----9----7----7----7----9----|----------------9----9-----|-9------7----%----|-2-------|
D|-------------------------------|---------------------------|-9------7----%----|-2-------|
A|-------------------------------|---------------------------|-7------5---------|-0-------|
E|-------------------------------|---------------------------|------------------|---------|

E|--------------|---------|------------------|---------|--------------|---------|---------|
B|--------------|---------|------------------|---------|--------------|---------|---------|
G|-7------------|---------|-9------7----%----|-2-------|-7------------|---------|---------|
D|-7------------|-2-------|-9------7----%----|-2-------|-7------------|-2-------|-2-------|
A|-5------------|-2-------|-7------5---------|-0-------|-5------------|-2-------|-2-------|
E|--------3-----|-0-------|------------------|---------|--------3-----|-0-------|-0-------|

E|---------|---------|--------------|---------|-------------------|
B|---------|---------|--------------|---------|-------------------|
G|---------|---------|--------------|---------|-------%-----%-----|
D|-2-------|-2-------|-2------2-----|-2-------|-2-----%-----%-----|
A|-2-------|-2-------|-2------2-----|-2-------|-2-----------------|
E|-0-------|-0-------|-0------0-----|-0-------|-0-----------------|
Iron Maiden - Montsegur
Iron Maiden - Montsegur.gp3