Iron Maiden - Mother Russia

Iron Maiden - Mother Russia

Iron Maiden



Title: Mother Russia
Album: 
Artist: 
Author: Iron Maiden

Track 1: Guitar 1
E|---------------------------|-----------------13--12--13----------------|-----------------13--12--13---12-----------------|
B|---------------------------|-11---8----10------------------------------|-11---8----10------------------------------------|
G|-%------%-----7---7---7----|------------------------------7---7---7----|------------------------------------7---7---7----|
D|-%------%------------------|-------------------------------------------|-------------------------------------------------|
A|---------------------------|-------------------------------------------|-------------------------------------------------|
E|---------------------------|-------------------------------------------|-------------------------------------------------|

E|-----------------13--12--13----------------|-------------------------------------------------|
B|-11---8----10------------------------------|-11---8----10----6---5---6----5-----11--10--11---|
G|------------------------------7---7---7----|-------------------------------------------------|
D|-------------------------------------------|-------------------------------------------------|
A|-------------------------------------------|-------------------------------------------------|
E|-------------------------------------------|-------------------------------------------------|

E|---------|---------|---------|---------|--------------------------------------------------|
B|---------|---------|---------|---------|--------------------------------------------------|
G|-%-------|-%-------|-%-------|-%-------|--------------------------------------------------|
D|-%-------|-%-------|-%-------|-%-------|---------------------------------3----------------|
A|---------|---------|---------|---------|------5----5----3---5---6----6-------5---3--------|
E|---------|---------|---------|---------|-3-------------------------------------------5----|

E|-------------------------------------------|--------------------------------------------------|
B|-------------------------------------------|--------------------------------------------------|
G|-------------------------------------------|--------------------------------------------------|
D|---------------------------------3---------|---------------------------------3----------------|
A|------5----5----3---5---6----6-------5-----|------5----5----3---5---6----6-------5---3--------|
E|-3-----------------------------------------|-3-------------------------------------------5----|

E|----------------------------------------------|-----------------------------------------|
B|----------------------------------------------|-----------------------------------------|
G|----------------------------------------------|-7-----9---10--------12---12---10---10---|
D|----------------------------------------------|-7-----9---10---12---12---12---10---10---|
A|------3----3------------3---3-----------------|-5-----7---8----12---10---10---8----8----|
E|-5--------------5---6-----------6---5---3-----|----------------10-----------------------|

E|-------------------------------------|-----------------------------------------|-------------------------------------|
B|-------------------------------------|-----------------------------------------|-------------------------------------|
G|-7-----9---10--------12---12---10----|-7-----9---10--------12---12---10---10---|-5-----7---9----5----12---12---------|
D|-7-----9---10---12---12---12---10----|-7-----9---10---12---12---12---10---10---|-5-----7---9----5----12---12---12----|
A|-5-----7---8----12---10---10---8-----|-5-----7---8----12---10---10---8----8----|-3-----5---7----3----10---10---12----|
E|----------------10-------------------|----------------10-----------------------|-------------------------------10----|

E|-----------------------------------------|-------------------------------------|-----------------------------------------|
B|-----------------------------------------|-------------------------------------|-----------------------------------------|
G|-10----12--14---10------------------10---|-10----12--14---10-------------------|-7-----9---10---7----12---12---10--------|
D|-10----12--14---10---8----8----7----10---|-10----12--14---10---8----8----7-----|-7-----9---10---7----12---12---10---12---|
A|-8-----10--12---8----8----8----7----8----|-8-----10--12---8----8----8----7-----|-5-----7---8----5----10---10---8----12---|
E|---------------------6----6----5---------|---------------------6----6----5-----|------------------------------------10---|

E|-------------------------------------|--------------------------------------------------|
B|-------------------------------------|--------------------------------------------------|
G|-----------9---------12---12---7-----|--------------------------------------------------|
D|-10----12--9----10---12---12---7-----|---------------------------------3----------------|
A|-10----12--7----10---10---10---5-----|------5----5----3---5---6----6-------5---3--------|
E|-8-----10-------8--------------------|-3-------------------------------------------5----|

E|-------------------------------------------|--------------------------------------------------|
B|-------------------------------------------|--------------------------------------------------|
G|-------------------------------------------|--------------------------------------------------|
D|---------------------------------3---------|---------------------------------3----------------|
A|------5----5----3---5---6----6-------5-----|------5----5----3---5---6----6-------5---3--------|
E|-3-----------------------------------------|-3-------------------------------------------5----|

E|----------------------------------------------|-----------------------------------------------------------------|
B|----------------------------------------------|-----------------------------------------------------------------|
G|----------------------------------------------|---------4---4---5---5-----------4---4---------------------------|
D|----------------------------------------------|-------------------------7---7-----------5---5---7---7---4---4---|
A|------3----3------------3---3-----------------|-7---7-----------------------------------------------------------|
E|-5--------------5---6-----------6---5---3-----|-----------------------------------------------------------------|

E|-------------------------------------------------------|-----------------------------------------------------------------|
B|-------------------------------------------------------|-----------------------------------------------------------------|
G|---------4---4---5---5-----------4---4-----------------|---------4---4---5---5-----------4---4---------------------------|
D|-------------------------7---7-----------5---5---4-----|-------------------------7---7-----------5---5---7---7---4---4---|
A|-7---7-------------------------------------------------|-7---7-----------------------------------------------------------|
E|-------------------------------------------------------|-----------------------------------------------------------------|

E|-------------------------------------------------|-----------------------------------------------------------------|
B|-------------------------------------------------|-----------------------------------------------------------------|
G|-------------------------------------------------|-----------------------------------------------------------------|
D|---------5---5---7---7---5---5---7----4----------|---------5---5---6---6---3---3---5---5---1---1---3---3-----------|
A|-5---5-------------------------------------5-----|-3---3---------------------------------------------------5---5---|
E|-------------------------------------------------|-----------------------------------------------------------------|

E|-------------------------------------------------------|-----------------------------------------------------------------|
B|-------------------------------------------------------|-----------------------------------------------------------------|
G|-------------------------------------------------------|-----------------------------------------------------------------|
D|---------5---5---6---6---3---3---5---5---1---1---------|---------5---5---6---6---3---3---5---5---1---1---3---3-----------|
A|-3---3-------------------------------------------5-----|-3---3---------------------------------------------------5---5---|
E|-------------------------------------------------------|-----------------------------------------------------------------|

E|-------------------------------------------------------|-----------------------------------------------------------------|
B|-------------------------------------------------------|-----------------------------------------------------------------|
G|-------------------------------------------------------|-----------------------------------------------------------------|
D|---------1---1---3---3---1---1---3---3-----------------|---------5---5---6---6---3---3---5---5---1---1---3---3-----------|
A|-3---3-----------------------------------5---5---3-----|-3---3---------------------------------------------------5---5---|
E|-------------------------------------------------------|-----------------------------------------------------------------|

E|-------------------------------------------------------|-----------------------------------------------------------------|
B|-------------------------------------------------------|-----------------------------------------------------------------|
G|-------------------------------------------------------|-----------------------------------------------------------------|
D|---------5---5---6---6---3---3---5---5---1---1---------|---------5---5---6---6---3---3---5---5---1---1---3---3-----------|
A|-3---3-------------------------------------------5-----|-3---3---------------------------------------------------5---5---|
E|-------------------------------------------------------|-----------------------------------------------------------------|

E|-------------------------------------------------|-------------|-------7-----5-----------|
B|-------------------------------------------------|-------------|-5-----------------7-----|
G|-------------------------------------------------|-------------|-------4-----2-----------|
D|---------1---1---3---3---1---1---3---3-----------|-------------|-2-----------------4-----|
A|-1---1-----------------------------------5---5---|-2-----5-----|-------------------------|
E|-------------------------------------------------|-------------|-------------------------|

E|-8----8----7----5--------------------|-------7-----5-----------|-8----8----7----5--------------------|
B|---------------------8---------------|-5-----------------7-----|---------------------8---------------|
G|-5----5----4----2----------4----7----|-------4-----2-----------|-5----5----4----2----------4----7----|
D|---------------------5---------------|-2-----------------4-----|---------------------5---------------|
A|---------------------------2----5----|-------------------------|---------------------------2----5----|
E|-------------------------------------|-------------------------|-------------------------------------|

E|-------7-----5-----------|-8----8----7----5----10---8----7----5----|-------7-----5-----------|
B|-------------------7-----|-----------------------------------------|-5-----------------7-----|
G|-5-----4-----2-----------|-5----5----4----2----7----5----4----2----|-------4-----2-----------|
D|-------------------4-----|-----------------------------------------|-2-----------------4-----|
A|-3-----------------------|-----------------------------------------|-------------------------|
E|-------------------------|-----------------------------------------|-------------------------|

E|-8----8----7----5--------------------|-------7-----5-----------|-8----8----7----5--------------------|
B|---------------------8---------------|-5-----------------7-----|---------------------8---------------|
G|-5----5----4----2---------4----7-----|-------4-----2-----------|-5----5----4----2----------4----7----|
D|---------------------5---------------|-2-----------------4-----|---------------------5---------------|
A|--------------------------2----5-----|-------------------------|---------------------------2----5----|
E|-------------------------------------|-------------------------|-------------------------------------|

E|-------7-----5-----------|-8----8----7----5--------------------|-------7-----5-----------|
B|-5-----------------7-----|---------------------8---------------|-------------------7-----|
G|-------4-----2-----------|-5----5----4----2----------4----7----|-5-----4-----2-----------|
D|-2-----------------4-----|---------------------5---------------|-------------------4-----|
A|-------------------------|---------------------------2----5----|-3-----------------------|
E|-------------------------|-------------------------------------|-------------------------|

E|-8----8----7----5----10---8----7----5----|-------7-----5-----------|-8----8----7---------------------|
B|-----------------------------------------|-5-----------------7-----|----------------10---8-----------|
G|-5----5----4----2----7----5----4----2----|-------4-----2-----------|-5----5----4---------------%-----|
D|-----------------------------------------|-2-----------------4-----|----------------7----5-----%-----|
A|-----------------------------------------|-------------------------|---------------------------------|
E|-----------------------------------------|-------------------------|---------------------------------|

E|---------------------------------|---------------------------------|---------------------------------|
B|---------------------------------|---------------------------------|---------------------------------|
G|-------------%---------%---------|-------------%---------%---------|-------------%---------%---------|
D|-4-----4-----%----4----%----4----|-4-----4-----%----4----%----4----|-4-----4-----%----4----%----4----|
A|-4-----4----------4---------4----|-4-----4----------4---------4----|-4-----4----------4---------4----|
E|-2-----2----------2---------2----|-2-----2----------2---------2----|-2-----2----------2---------2----|

E|----------------------------|---------------------------------|---------------------------------|
B|----------------------------|---------------------------------|---------------------------------|
G|----------------------------|-------------%---------%---------|-------------%---------%---------|
D|-4----4----4----7----7------|-4-----4-----%----4----%----4----|-4-----4-----%----4----%----4----|
A|-4----4----4----7----7------|-4-----4----------4---------4----|-4-----4----------4---------4----|
E|-2----2----2----5----5------|-2-----2----------2---------2----|-2-----2----------2---------2----|

E|---------------------------------|----------------------------|---------------------------------|
B|---------------------------------|----------------------------|---------------------------------|
G|-------------%---------%---------|----------------------------|-------------%---------%---------|
D|-4-----4-----%----4----%----4----|-4----4----4----7----7------|-4-----4-----%----4----%----4----|
A|-4-----4----------4---------4----|-4----4----4----7----7------|-4-----4----------4---------4----|
E|-2-----2----------2---------2----|-2----2----2----5----5------|-2-----2----------2---------2----|

E|---------------------------------|---------------------------------|----------------------------|
B|---------------------------------|---------------------------------|----------------------------|
G|-------------%---------%---------|-------------%---------%---------|----------------------------|
D|-4-----4-----%----4----%----4----|-4-----4-----%----4----%----4----|-4----4----4----7----7------|
A|-4-----4----------4---------4----|-4-----4----------4---------4----|-4----4----4----7----7------|
E|-2-----2----------2---------2----|-2-----2----------2---------2----|-2----2----2----5----5------|

E|---------------------------------|---------------------------------|---------------------------------|
B|---------------------------------|---------------------------------|---------------------------------|
G|-------------%---------%---------|-------------%---------%---------|-------------%---------%---------|
D|-4-----4-----%----4----%----4----|-4-----4-----%----4----%----4----|-4-----4-----%----4----%----4----|
A|-4-----4----------4---------4----|-4-----4----------4---------4----|-4-----4----------4---------4----|
E|-2-----2----------2---------2----|-2-----2----------2---------2----|-2-----2----------2---------2----|

E|----------------------------|---------------------------------|---------------------------------|
B|----------------------------|---------------------------------|---------------------------------|
G|----------------------------|-5-----5-----%----5----%----5----|-5-----5-----%----5----%----5----|
D|-4----4----4----7----7------|-5-----5-----%----5----%----5----|-5-----5-----%----5----%----5----|
A|-4----4----4----7----7------|-3-----3----------3---------3----|-3-----3----------3---------3----|
E|-2----2----2----5----5------|---------------------------------|---------------------------------|

E|---------------------------------|----------------------------|---------------------------------|
B|---------------------------------|----------------------------|---------------------------------|
G|-5-----5-----%----5----%----5----|-5----5----5----8----8------|-5-----5-----%----5----%----5----|
D|-5-----5-----%----5----%----5----|-5----5----5----8----8------|-5-----5-----%----5----%----5----|
A|-3-----3----------3---------3----|-3----3----3----6----6------|-3-----3----------3---------3----|
E|---------------------------------|----------------------------|---------------------------------|

E|---------------------------------|---------------------------------|----------------------------|
B|---------------------------------|---------------------------------|----------------------------|
G|-5-----5-----%----5----%----5----|-5-----5-----%----5----%----5----|-5----5----5----8----8------|
D|-5-----5-----%----5----%----5----|-5-----5-----%----5----%----5----|-5----5----5----8----8------|
A|-3-----3----------3---------3----|-3-----3----------3---------3----|-3----3----3----6----6------|
E|---------------------------------|---------------------------------|----------------------------|

E|---------------------------------|---------------------------------|---------------------------------|
B|---------------------------------|---------------------------------|---------------------------------|
G|-5-----5-----%----5----%----5----|-5-----5-----%----5----%----5----|-5-----5-----%----5----%----5----|
D|-5-----5-----%----5----%----5----|-5-----5-----%----5----%----5----|-5-----5-----%----5----%----5----|
A|-3-----3----------3---------3----|-3-----3----------3---------3----|-3-----3----------3---------3----|
E|---------------------------------|---------------------------------|---------------------------------|

E|----------------------------|---------------------------------|---------------------------------|
B|----------------------------|---------------------------------|---------------------------------|
G|-5----5----5----8----8------|-5-----5-----%----5----%----5----|-5-----5-----%----5----%----5----|
D|-5----5----5----8----8------|-5-----5-----%----5----%----5----|-5-----5-----%----5----%----5----|
A|-3----3----3----6----6------|-3-----3----------3---------3----|-3-----3----------3---------3----|
E|----------------------------|---------------------------------|---------------------------------|

E|---------------------------------|----------------------------|-----------------------------------------|
B|---------------------------------|----------------------------|-----------------------------------------|
G|-5-----5-----%----5----%----5----|-5----5----5----8----8------|-----------------------------------------|
D|-5-----5-----%----5----%----5----|-5----5----5----8----8------|-2----2----2----2----2----2----2----2----|
A|-3-----3----------3---------3----|-3----3----3----6----6------|-2----2----2----2----2----2----2----2----|
E|---------------------------------|----------------------------|-0----0----0----0----0----0----0----0----|

E|---------------------------------|-----------------------------------------|---------------------------------|
B|---------------------------------|-----------------------------------------|---------------------------------|
G|---------------------------------|-----------------------------------------|---------------------------------|
D|-2----2----2----2----4-----5-----|-4----4----4----4----4----4----4----4----|-4----4----4----4----5-----7-----|
A|-2----2----2----2----4-----5-----|-4----4----4----4----4----4----4----4----|-4----4----4----4----5-----7-----|
E|-0----0----0----0----2-----3-----|-2----2----2----2----2----2----2----2----|-2----2----2----2----3-----5-----|

E|-----------------------------------------|---------------------------------|---------|
B|-----------------------------------------|---------------------------------|---------|
G|-----------------------------------------|---------------------------------|-%-------|
D|-5----5----5----5----5----5----5----5----|-5----5----5----5----7-----9-----|-%-------|
A|-5----5----5----5----5----5----5----5----|-5----5----5----5----7-----9-----|---------|
E|-3----3----3----3----3----3----3----3----|-3----3----3----3----5-----7-----|---------|

E|---------|-----------------------------------------|---------------------------------|
B|---------|-----------------------------------------|---------------------------------|
G|-%-------|-----------------------------------------|---------------------------------|
D|-%-------|-2----2----2----2----2----2----2----2----|-2----2----2----2----4-----5-----|
A|---------|-2----2----2----2----2----2----2----2----|-2----2----2----2----4-----5-----|
E|---------|-0----0----0----0----0----0----0----0----|-0----0----0----0----2-----3-----|

E|-----------------------------------------|---------------------------------|-----------------------------------------|
B|-----------------------------------------|---------------------------------|-----------------------------------------|
G|-----------------------------------------|---------------------------------|-----------------------------------------|
D|-4----4----4----4----4----4----4----4----|-4----4----4----4----5-----7-----|-5----5----5----5----5----5----5----5----|
A|-4----4----4----4----4----4----4----4----|-4----4----4----4----5-----7-----|-5----5----5----5----5----5----5----5----|
E|-2----2----2----2----2----2----2----2----|-2----2----2----2----3-----5-----|-3----3----3----3----3----3----3----3----|

E|---------------------------------|---------|---------|-----------------------------------------|
B|---------------------------------|---------|---------|-----------------------------------------|
G|---------------------------------|-%-------|-%-------|-----------------------------------------|
D|-5----5----5----5----7-----9-----|-%-------|-%-------|-2----2----2----2----2----2----2----2----|
A|-5----5----5----5----7-----9-----|---------|---------|-2----2----2----2----2----2----2----2----|
E|-3----3----3----3----5-----7-----|---------|---------|-0----0----0----0----0----0----0----0----|

E|---------------------------------|-----------------------------------------|---------------------------------|
B|---------------------------------|-----------------------------------------|---------------------------------|
G|---------------------------------|-----------------------------------------|---------------------------------|
D|-2----2----2----2----4-----5-----|-4----4----4----4----4----4----4----4----|-4----4----4----4----5-----7-----|
A|-2----2----2----2----4-----5-----|-4----4----4----4----4----4----4----4----|-4----4----4----4----5-----7-----|
E|-0----0----0----0----2-----3-----|-2----2----2----2----2----2----2----2----|-2----2----2----2----3-----5-----|

E|-----------------------------------------|---------------------------------|---------|
B|-----------------------------------------|---------------------------------|---------|
G|-----------------------------------------|---------------------------------|-%-------|
D|-5----5----5----5----5----5----5----5----|-5----5----5----5----7-----9-----|-%-------|
A|-5----5----5----5----5----5----5----5----|-5----5----5----5----7-----9-----|---------|
E|-3----3----3----3----3----3----3----3----|-3----3----3----3----5-----7-----|---------|

E|---------|-------------------------------------|-------------------------------------|
B|---------|-------------------------------------|-------------------------------------|
G|-%-------|-7-----9---10--------12---12---7-----|-7-----9---10---7----12---9----9-----|
D|-%-------|-7-----9---10---12---12---12---7-----|-7-----9---10---7----12---9----9-----|
A|---------|-5-----7---8----12---10---10---5-----|-5-----7---8----5----10---7----7-----|
E|---------|----------------10-------------------|-------------------------------------|

E|------------------------------------|--------------------------------|-----------------------------------------|
B|------------------------------------|--------------------------------|-----------------------------------------|
G|-9-----10--12----9----9---10--12----|-9----9---10--12----10----------|-10----12-------10------------------10---|
D|-9-----10--12----9----9---10--12----|-9----9---10--12----10----12----|-10----12--7----10---8----8----7----10---|
A|-7-----8---10----7----7---8---10----|-7----7---8---10----8-----12----|-8-----10--7----8----8----8----7----8----|
E|------------------------------------|--------------------------10----|-----------5---------6----6----5---------|

E|-------------------------------------|-----------------------------------------|--------------------|
B|-------------------------------------|-----------------------------------------|--------------------|
G|-10----12-------10-------------------|-7-----9---10---7----12---12---10---7----|-9------10----7-----|
D|-10----12--7----10---8----8----7-----|-7-----9---10---7----12---12---10---7----|-9------10----7-----|
A|-8-----10--7----8----8----8----7-----|-5-----7---8----5----10---10---8----5----|-7------8-----5-----|
E|-----------5---------6----6----5-----|-----------------------------------------|--------------------|

E|---------|---------|---------|---------|
B|---------|---------|---------|---------|
G|-%-------|-%-------|-%-------|-%-------|
D|-%-------|-%-------|-%-------|-%-------|
A|---------|---------|---------|---------|
E|---------|---------|---------|---------|
Iron Maiden - Mother Russia
Iron Maiden - Mother Russia.gp3