Iron Maiden - Mother Russia (2)

Iron Maiden



Title: Mother Russia
Album: NO PRAYER FOR THE DYING
Artist: Iron Maiden
Author: Iron Maiden

Track 1: Guitar 1
E|------------------------------------|---------------------------|------------------------------------|
B|------------------------------------|---------------------------|------------------------------------|
G|------------------------------------|----------------------%----|------------------------------------|
D|-7---7---7----8----5----7-----7-----|-7---7---7-----7------%----|-7---7---7----8----5----7-----7-----|
A|-5---5---5--------------------------|-5---5---5-----5-----------|-5---5---5--------------------------|
E|------------------------------------|---------------------------|------------------------------------|

E|-------------------------------|-------------------------------|---------|---------|
B|-------------------------------|-------------------------------|---------|---------|
G|--------------------------%----|-------------------------------|---------|-%-------|
D|-7---7---7----5----5------%----|-7---7---7----5-----5----------|---------|-%-------|
A|-5---5---5----3----3-----------|-5---5---5----3-----3------5---|-5-------|---------|
E|-------------------------------|---------------------------3---|-3-------|---------|

E|---------|---------|---------|---------|---------|---------|---------|--------------------------------------------------|
B|---------|---------|---------|---------|---------|---------|---------|--------------------------------------------------|
G|-%-------|-%-------|-%-------|-%-------|-%-------|-%-------|-%-------|---------------------------------5----------------|
D|-%-------|-%-------|-%-------|-%-------|-%-------|-%-------|-%-------|------7----7----5---7---8----8---3---7---5--------|
A|---------|---------|---------|---------|---------|---------|---------|-5----5----5----3---5---6----6-------5---3---8----|
E|---------|---------|---------|---------|---------|---------|---------|-3-------------------------------------------6----|

E|-------------------------------------------|--------------------------------------------------|
B|-------------------------------------------|--------------------------------------------------|
G|---------------------------------5---------|---------------------------------5----------------|
D|------7----7----5---7---8----8---3---7-----|------7----7----5---7---8----8---3---7---5--------|
A|-5----5----5----3---5---6----6-------5-----|-5----5----5----3---5---6----6-------5---3---8----|
E|-3-----------------------------------------|-3-------------------------------------------6----|

E|----------------------------------------------|--------------------------------------------------|
B|----------------------------------------------|--------------------------------------------------|
G|----------------------------------------------|---------------------------------5----------------|
D|------5----5------------5---5-----------------|------7----7----5---7---8----8---3---7---5--------|
A|-5----3----3----7---8---3---3---8---7---5-----|-5----5----5----3---5---6----6-------5---3---8----|
E|-3--------------5---6-----------6---5---3-----|-3-------------------------------------------6----|

E|-------------------------------------------|--------------------------------------------------|
B|-------------------------------------------|--------------------------------------------------|
G|---------------------------------5---------|---------------------------------5----------------|
D|------7----7----5---7---8----8---3---7-----|------7----7----5---7---8----8---3---7---5--------|
A|-5----5----5----3---5---6----6-------5-----|-5----5----5----3---5---6----6-------5---3---8----|
E|-3-----------------------------------------|-3-------------------------------------------6----|

E|----------------------------------------------|-----------------------------------------|
B|----------------------------------------------|-----------------------------------------|
G|----------------------------------------------|-7-----9---10--------12---12---10---10---|
D|------5----5------------5---5-----------------|-7-----9---10---12---12---12---10---10---|
A|-5----3----3----7---8---3---3---8---7---5-----|-5-----7---8----12---10---10---8----8----|
E|-3--------------5---6-----------6---5---3-----|----------------10-----------------------|

E|-------------------------------------|-----------------------------------------|-------------------------------------|
B|-------------------------------------|-----------------------------------------|-------------------------------------|
G|-7-----9---10--------12---12---10----|-7-----9---10--------12---12---10---10---|-5-----7---9----5----12---12---------|
D|-7-----9---10---12---12---12---10----|-7-----9---10---12---12---12---10---10---|-5-----7---9----5----12---12---12----|
A|-5-----7---8----12---10---10---8-----|-5-----7---8----12---10---10---8----8----|-3-----5---7----3----10---10---12----|
E|----------------10-------------------|----------------10-----------------------|-------------------------------10----|

E|-----------------------------------------|-------------------------------------|-----------------------------------------|
B|-----------------------------------------|-------------------------------------|-----------------------------------------|
G|-10----12--14---10------------------10---|-10----12--14---10-------------------|-7-----9---10---7----12---12---10--------|
D|-10----12--14---10---8----8----7----10---|-10----12--14---10---8----8----7-----|-7-----9---10---7----12---12---10---12---|
A|-8-----10--12---8----8----8----7----8----|-8-----10--12---8----8----8----7-----|-5-----7---8----5----10---10---8----12---|
E|---------------------6----6----5---------|---------------------6----6----5-----|------------------------------------10---|

E|-------------------------------------|--------------------------------------------------|
B|-------------------------------------|--------------------------------------------------|
G|-----------9---------12---12---7-----|---------------------------------5----------------|
D|-10----12--9----10---12---12---7-----|------7----7----5---7---8----8---3---7---5--------|
A|-10----12--7----10---10---10---5-----|-5----5----5----3---5---6----6-------5---3---8----|
E|-8-----10-------8--------------------|-3-------------------------------------------6----|

E|-------------------------------------------|--------------------------------------------------|
B|-------------------------------------------|--------------------------------------------------|
G|---------------------------------5---------|---------------------------------5----------------|
D|------7----7----5---7---8----8---3---7-----|------7----7----5---7---8----8---3---7---5--------|
A|-5----5----5----3---5---6----6-------5-----|-5----5----5----3---5---6----6-------5---3---8----|
E|-3-----------------------------------------|-3-------------------------------------------6----|

E|----------------------------------------------|----------------------------------------------|
B|----------------------------------------------|----------------------------------------------|
G|----------------------------------------------|----------------------------------------------|
D|------5----5------------5---5-----------------|------5----5------------5---5-----------------|
A|-5----3----3----7---8---3---3---8---7---5-----|-5----3----3----7---8---3---3---8---7---5-----|
E|-3--------------5---6-----------6---5---3-----|-3--------------5---6-----------6---5---3-----|

E|---------|---------|---------|---------------|----------------------|----------------------|
B|---------|---------|---------|---------------|----------------------|----------------------|
G|-9-------|-9-------|-9-------|-7-------9-----|-5-------5----5---6---|-5-------5----5---6---|
D|-9-------|-9-------|-9-------|-7-------9-----|-5-------5----5---6---|-5-------5----5---6---|
A|-7-------|-7-------|-7-------|-5-------7-----|-3-------3----3---4---|-3-------3----3---4---|
E|---------|---------|---------|---------------|----------------------|----------------------|

E|---------|---------------|--------------|------------------------|---------|------------------------|
B|---------|---------------|--------------|------------------------|---------|------------------------|
G|-5-------|-3-------5-----|-3-----3------|-4----7----9-----9------|-9-------|-4----7----9-----9------|
D|-5-------|-3-------5-----|-3-----3------|-4----7----9-----9------|-9-------|-4----7----9-----9------|
A|-3-------|-1-------3-----|-1-----1------|-2----5----7-----7------|-7-------|-2----5----7-----7------|
E|---------|---------------|--------------|------------------------|---------|------------------------|

E|---------|------------------------|---------|------------------------|---------|------------------------|
B|---------|------------------------|---------|------------------------|---------|------------------------|
G|-9-------|-4----7----5-----5------|-5-------|-4----7----9-----9------|-9-------|-4----7----9-----9------|
D|-9-------|-4----7----5-----5------|-5-------|-4----7----9-----9------|-9-------|-4----7----9-----9------|
A|-7-------|-2----5----3-----3------|-3-------|-2----5----7-----7------|-7-------|-2----5----7-----7------|
E|---------|------------------------|---------|------------------------|---------|------------------------|

E|---------|------------------------|---------|------------------------|---------|------------------------|
B|---------|------------------------|---------|------------------------|---------|------------------------|
G|-9-------|-4----7----9-----9------|-9-------|-4----7----5-----5------|-5-------|-4----7----9-----9------|
D|-9-------|-4----7----9-----9------|-9-------|-4----7----5-----5------|-5-------|-4----7----9-----9------|
A|-7-------|-2----5----7-----7------|-7-------|-2----5----3-----3------|-3-------|-2----5----7-----7------|
E|---------|------------------------|---------|------------------------|---------|------------------------|

E|---------|-----------|---------------------------------|---------------------------------|
B|---------|-----------|---------------------------------|---------------------------------|
G|-9-------|-6----9----|-------------%---------%---------|-------------%---------%---------|
D|-9-------|-6----9----|-4-----4-----%----4----%----4----|-4-----4-----%----4----%----4----|
A|-7-------|-4----7----|-4-----4----------4---------4----|-4-----4----------4---------4----|
E|---------|-----------|-2-----2----------2---------2----|-2-----2----------2---------2----|

E|---------------------------------|----------------------------|---------------------------------|
B|---------------------------------|----------------------------|---------------------------------|
G|-------------%---------%---------|----------------------------|-------------%---------%---------|
D|-4-----4-----%----4----%----4----|-4----4----4----7----7------|-4-----4-----%----4----%----4----|
A|-4-----4----------4---------4----|-4----4----4----7----7------|-4-----4----------4---------4----|
E|-2-----2----------2---------2----|-2----2----2----5----5------|-2-----2----------2---------2----|

E|---------------------------------|---------------------------------|----------------------------|
B|---------------------------------|---------------------------------|----------------------------|
G|-------------%---------%---------|-------------%---------%---------|----------------------------|
D|-4-----4-----%----4----%----4----|-4-----4-----%----4----%----4----|-4----4----4----7----7------|
A|-4-----4----------4---------4----|-4-----4----------4---------4----|-4----4----4----7----7------|
E|-2-----2----------2---------2----|-2-----2----------2---------2----|-2----2----2----5----5------|

E|---------------------------------|---------------------------------|---------------------------------|
B|---------------------------------|---------------------------------|---------------------------------|
G|-------------%---------%---------|-------------%---------%---------|-------------%---------%---------|
D|-4-----4-----%----4----%----4----|-4-----4-----%----4----%----4----|-4-----4-----%----4----%----4----|
A|-4-----4----------4---------4----|-4-----4----------4---------4----|-4-----4----------4---------4----|
E|-2-----2----------2---------2----|-2-----2----------2---------2----|-2-----2----------2---------2----|

E|----------------------------|---------------------------------|---------------------------------|
B|----------------------------|---------------------------------|---------------------------------|
G|----------------------------|-------------%---------%---------|-------------%---------%---------|
D|-4----4----4----7----7------|-4-----4-----%----4----%----4----|-4-----4-----%----4----%----4----|
A|-4----4----4----7----7------|-4-----4----------4---------4----|-4-----4----------4---------4----|
E|-2----2----2----5----5------|-2-----2----------2---------2----|-2-----2----------2---------2----|

E|---------------------------------|----------------------------|---------------------------------|
B|---------------------------------|----------------------------|---------------------------------|
G|-------------%---------%---------|----------------------------|-5-----5-----%----5----%----5----|
D|-4-----4-----%----4----%----4----|-4----4----4----7----7------|-5-----5-----%----5----%----5----|
A|-4-----4----------4---------4----|-4----4----4----7----7------|-3-----3----------3---------3----|
E|-2-----2----------2---------2----|-2----2----2----5----5------|---------------------------------|

E|---------------------------------|---------------------------------|----------------------------|
B|---------------------------------|---------------------------------|----------------------------|
G|-5-----5-----%----5----%----5----|-5-----5-----%----5----%----5----|-5----5----5----8----8------|
D|-5-----5-----%----5----%----5----|-5-----5-----%----5----%----5----|-5----5----5----8----8------|
A|-3-----3----------3---------3----|-3-----3----------3---------3----|-3----3----3----6----6------|
E|---------------------------------|---------------------------------|----------------------------|

E|---------------------------------|---------------------------------|---------------------------------|
B|---------------------------------|---------------------------------|---------------------------------|
G|-5-----5-----%----5----%----5----|-5-----5-----%----5----%----5----|-5-----5-----%----5----%----5----|
D|-5-----5-----%----5----%----5----|-5-----5-----%----5----%----5----|-5-----5-----%----5----%----5----|
A|-3-----3----------3---------3----|-3-----3----------3---------3----|-3-----3----------3---------3----|
E|---------------------------------|---------------------------------|---------------------------------|

E|----------------------------|---------------------------------|---------------------------------|
B|----------------------------|---------------------------------|---------------------------------|
G|-5----5----5----8----8------|-5-----5-----%----5----%----5----|-5-----5-----%----5----%----5----|
D|-5----5----5----8----8------|-5-----5-----%----5----%----5----|-5-----5-----%----5----%----5----|
A|-3----3----3----6----6------|-3-----3----------3---------3----|-3-----3----------3---------3----|
E|----------------------------|---------------------------------|---------------------------------|

E|---------------------------------|----------------------------|---------------------------------|
B|---------------------------------|----------------------------|---------------------------------|
G|-5-----5-----%----5----%----5----|-5----5----5----8----8------|-5-----5-----%----5----%----5----|
D|-5-----5-----%----5----%----5----|-5----5----5----8----8------|-5-----5-----%----5----%----5----|
A|-3-----3----------3---------3----|-3----3----3----6----6------|-3-----3----------3---------3----|
E|---------------------------------|----------------------------|---------------------------------|

E|---------------------------------|---------------------------------|----------------------------|
B|---------------------------------|---------------------------------|----------------------------|
G|-5-----5-----%----5----%----5----|-5-----5-----%----5----%----5----|-5----5----5----8----8------|
D|-5-----5-----%----5----%----5----|-5-----5-----%----5----%----5----|-5----5----5----8----8------|
A|-3-----3----------3---------3----|-3-----3----------3---------3----|-3----3----3----6----6------|
E|---------------------------------|---------------------------------|----------------------------|

E|-----------------------------------------|---------------------------------|-----------------------------------------|
B|-----------------------------------------|---------------------------------|-----------------------------------------|
G|-----------------------------------------|---------------------------------|-----------------------------------------|
D|-2----2----2----2----2----2----2----2----|-2----2----2----2----4-----5-----|-4----4----4----4----4----4----4----4----|
A|-2----2----2----2----2----2----2----2----|-2----2----2----2----4-----5-----|-4----4----4----4----4----4----4----4----|
E|-0----0----0----0----0----0----0----0----|-0----0----0----0----2-----3-----|-2----2----2----2----2----2----2----2----|

E|---------------------------------|-----------------------------------------|---------------------------------|
B|---------------------------------|-----------------------------------------|---------------------------------|
G|---------------------------------|-----------------------------------------|---------------------------------|
D|-4----4----4----4----5-----7-----|-5----5----5----5----5----5----5----5----|-5----5----5----5----7-----9-----|
A|-4----4----4----4----5-----7-----|-5----5----5----5----5----5----5----5----|-5----5----5----5----7-----9-----|
E|-2----2----2----2----3-----5-----|-3----3----3----3----3----3----3----3----|-3----3----3----3----5-----7-----|

E|-----------------------------------------|-----------------------------------------|
B|-----------------------------------------|-----------------------------------------|
G|------8----7----5----7----5--------------|-----------------------------------------|
D|-5-----------------------------8----7----|-8----7----5---------5-------------------|
A|-----------------------------------------|----------------8---------8----5---------|
E|-----------------------------------------|------------------------------------8----|

E|-----------------------------------------|---------------------------------|-----------------------------------------|
B|-----------------------------------------|---------------------------------|-----------------------------------------|
G|-----------------------------------------|---------------------------------|-----------------------------------------|
D|-2----2----2----2----2----2----2----2----|-2----2----2----2----4-----5-----|-4----4----4----4----4----4----4----4----|
A|-2----2----2----2----2----2----2----2----|-2----2----2----2----4-----5-----|-4----4----4----4----4----4----4----4----|
E|-0----0----0----0----0----0----0----0----|-0----0----0----0----2-----3-----|-2----2----2----2----2----2----2----2----|

E|---------------------------------|-----------------------------------------|---------------------------------|
B|---------------------------------|-----------------------------------------|---------------------------------|
G|---------------------------------|-----------------------------------------|---------------------------------|
D|-4----4----4----4----5-----7-----|-5----5----5----5----5----5----5----5----|-5----5----5----5----7-----9-----|
A|-4----4----4----4----5-----7-----|-5----5----5----5----5----5----5----5----|-5----5----5----5----7-----9-----|
E|-2----2----2----2----3-----5-----|-3----3----3----3----3----3----3----3----|-3----3----3----3----5-----7-----|

E|-----------------------------------------|-----------------------------------------|
B|-----------------------------------------|-----------------------------------------|
G|------8----7----5----7----5--------------|-----------------------------------------|
D|-5-----------------------------8----7----|-8----7----5---------5-------------------|
A|-----------------------------------------|----------------8---------8----5---------|
E|-----------------------------------------|------------------------------------8----|

E|-----------------------------------------|---------------------------------|-----------------------------------------|
B|-----------------------------------------|---------------------------------|-----------------------------------------|
G|-----------------------------------------|---------------------------------|-----------------------------------------|
D|-2----2----2----2----2----2----2----2----|-2----2----2----2----4-----5-----|-4----4----4----4----4----4----4----4----|
A|-2----2----2----2----2----2----2----2----|-2----2----2----2----4-----5-----|-4----4----4----4----4----4----4----4----|
E|-0----0----0----0----0----0----0----0----|-0----0----0----0----2-----3-----|-2----2----2----2----2----2----2----2----|

E|---------------------------------|-----------------------------------------|---------------------------------|
B|---------------------------------|-----------------------------------------|---------------------------------|
G|---------------------------------|-----------------------------------------|---------------------------------|
D|-4----4----4----4----5-----7-----|-5----5----5----5----5----5----5----5----|-5----5----5----5----7-----9-----|
A|-4----4----4----4----5-----7-----|-5----5----5----5----5----5----5----5----|-5----5----5----5----7-----9-----|
E|-2----2----2----2----3-----5-----|-3----3----3----3----3----3----3----3----|-3----3----3----3----5-----7-----|

E|-----------------------------------------|-----------------------------------------|
B|-----------------------------------------|-----------------------------------------|
G|------8----7----5----7----5--------------|-----------------------------------------|
D|-5-----------------------------8----7----|-8----7----5---------5-------------------|
A|-----------------------------------------|----------------8---------8----5---------|
E|-----------------------------------------|------------------------------------8----|

E|-------------------------------------|-------------------------------------|------------------------------------|
B|-------------------------------------|-------------------------------------|------------------------------------|
G|-7-----9---10--------12---12---7-----|-7-----9---10---7----12---9----9-----|-9-----10--12----9----9---10--12----|
D|-7-----9---10---12---12---12---7-----|-7-----9---10---7----12---9----9-----|-9-----10--12----9----9---10--12----|
A|-5-----7---8----12---10---10---5-----|-5-----7---8----5----10---7----7-----|-7-----8---10----7----7---8---10----|
E|----------------10-------------------|-------------------------------------|------------------------------------|

E|--------------------------------|------------------------------------|--------------------|
B|--------------------------------|------------------------------------|--------------------|
G|-9----9---10--12----10----------|-9-----10--12----9----9---10--12----|-9------10----7-----|
D|-9----9---10--12----10----12----|-9-----10--12----9----9---10--12----|-9------10----7-----|
A|-7----7---8---10----8-----12----|-7-----8---10----7----7---8---10----|-7------8-----5-----|
E|--------------------------10----|------------------------------------|--------------------|

E|---------|---------|---------|---------|---------|---------|---------|---------|---------|
B|---------|---------|---------|---------|---------|---------|---------|---------|---------|
G|-7-------|-%-------|-%-------|-%-------|-%-------|-%-------|-%-------|-%-------|-%-------|
D|-7-------|-%-------|-%-------|-%-------|-%-------|-%-------|-%-------|-%-------|-%-------|
A|-5-------|---------|---------|---------|---------|---------|---------|---------|---------|
E|---------|---------|---------|---------|---------|---------|---------|---------|---------|

E|---------|---------|
B|---------|---------|
G|-%-------|-%-------|
D|-%-------|-%-------|
A|---------|---------|
E|---------|---------|
Iron Maiden - Mother Russia (2)
Iron Maiden - Mother Russia (2).gp3