Iron Maiden - Murders in the rue morgue solo

Iron Maiden



Title: Murders in the rue morgue solo
Album: Killers
Artist: Iron Maiden
Author: Steve Harris

Track 1: Dave
E|-17----17----17----17---15---|-14---15---14--15--14-------------------|-----------------------------|
B|-----------------------------|------------------------17---15---15----|-15----15----15----15---13---|
G|-----------------------------|----------------------------------------|-----------------------------|
D|-----------------------------|----------------------------------------|-----------------------------|
A|-----------------------------|----------------------------------------|-----------------------------|
E|-----------------------------|----------------------------------------|-----------------------------|

E|----------------------------------------|-17----17----17----17---15---|-14---15---14--15--14-------------------|
B|-12---13---12--13--12-------------------|-----------------------------|------------------------17---15---15----|
G|------------------------14---12---12----|-----------------------------|----------------------------------------|
D|----------------------------------------|-----------------------------|----------------------------------------|
A|----------------------------------------|-----------------------------|----------------------------------------|
E|----------------------------------------|-----------------------------|----------------------------------------|

E|-----------------------------|----------------------------------------|-----------------------------|
B|-15----15----15----15---13---|-12---13---12--13--12-------------------|-15----15----15----15---13---|
G|-----------------------------|------------------------14---12---12----|-----------------------------|
D|-----------------------------|----------------------------------------|-----------------------------|
A|-----------------------------|----------------------------------------|-----------------------------|
E|-----------------------------|----------------------------------------|-----------------------------|

E|----------------------------------------|-----------------------------------------|
B|-12---13---12--13--13-------------------|--------------------------12--------12---|
G|------------------------14---12---12----|------12---14---12---14--------14--------|
D|----------------------------------------|-15--------------------------------------|
A|----------------------------------------|-----------------------------------------|
E|----------------------------------------|-----------------------------------------|

E|-------------------------------12--------|-12---14---12---14---15---14---15---17---|
B|-13---12---13---15---13---15--------15---|-----------------------------------------|
G|-----------------------------------------|-----------------------------------------|
D|-----------------------------------------|-----------------------------------------|
A|-----------------------------------------|-----------------------------------------|
E|-----------------------------------------|-----------------------------------------|

E|-17----17----17----17---15---|-14---15---14--15--14-------------------|-----------------------------|
B|-----------------------------|------------------------17---15---15----|-15----15----15----15---13---|
G|-----------------------------|----------------------------------------|-----------------------------|
D|-----------------------------|----------------------------------------|-----------------------------|
A|-----------------------------|----------------------------------------|-----------------------------|
E|-----------------------------|----------------------------------------|-----------------------------|

E|----------------------------------------|-----------------------------|---------|
B|-12---13---12--13--12-------------------|-15----15----15----12--------|---------|
G|------------------------14---12---12----|------------------------14---|-14------|
D|----------------------------------------|-----------------------------|---------|
A|----------------------------------------|-----------------------------|---------|
E|----------------------------------------|-----------------------------|---------|

E|---------|---------|
B|---------|---------|
G|-%-------|-%-------|
D|-%-------|-%-------|
A|---------|---------|
E|---------|---------|
Iron Maiden - Murders in the rue morgue solo
Iron Maiden - Murders in the rue morgue solo.gp3