Iron Maiden - No More Lies (2)

Iron Maiden - No More Lies (2)

Iron Maiden



Title: No More Lies
Album: Dance of Death
Artist: Iron Maiden
Author: 

Track 1: Dist. Guitar 1
E|------12------12---12------12------12---12---12------|-12------12---12---12------12--15--13------12-------12--|
B|----------15-----------15------15----------------15--|-----15----------------15-----------------------15------|
G|-14--------------------------------------------------|---------------------------------------%----------------|
D|-----------------------------------------------------|---------------------------------------%----------------|
A|-----------------------------------------------------|--------------------------------------------------------|
E|-----------------------------------------------------|--------------------------------------------------------|

E|--------------------------------------------------------|---------------------------------------------12---|
B|-15---13------13---13--12--13--15--13------13---13--15--|-13---12------12-----------12------12-------------|
G|----------%----------------------------%----------------|----------%--------%---14------14-------14--------|
D|----------%----------------------------%----------------|----------%--------%------------------------------|
A|--------------------------------------------------------|--------------------------------------------------|
E|--------------------------------------------------------|--------------------------------------------------|

E|------12------12---12------12------12---12---12------|-12------12---12---12------12--15--13------12-------12--|
B|----------15-----------15------15----------------15--|-----15----------------15-----------------------15------|
G|-14--------------------------------------------------|---------------------------------------%----------------|
D|-----------------------------------------------------|---------------------------------------%----------------|
A|-----------------------------------------------------|--------------------------------------------------------|
E|-----------------------------------------------------|--------------------------------------------------------|

E|--------------------------------------------------------|---------------------------------------------12---|
B|-15---13------13---13--12--13--15--13------13---13--15--|-13---12------12-----------12------12-------------|
G|----------%----------------------------%----------------|----------%--------%---14------14-------14--------|
D|----------%----------------------------%----------------|----------%--------%------------------------------|
A|--------------------------------------------------------|--------------------------------------------------|
E|--------------------------------------------------------|--------------------------------------------------|

E|------12--12------12------12----------12---12----|------12--12------12------12--13---12--------12---|
B|------------------------------15--15-------------|----------------------------------------15--------|
G|-%------------%-------%--------------------------|-%------------%-------%---------------------------|
D|-%------------%-------%--------------------------|-%------------%-------%---------------------------|
A|-------------------------------------------------|--------------------------------------------------|
E|-------------------------------------------------|--------------------------------------------------|

E|------12--12------12------12----------12---12----|------12--12------12------12--13---12--------12---|
B|------------------------------15--15-------------|----------------------------------------15--------|
G|-%------------%-------%--------------------------|-%------------%-------%---------------------------|
D|-%------------%-------%--------------------------|-%------------%-------%---------------------------|
A|-------------------------------------------------|--------------------------------------------------|
E|-------------------------------------------------|--------------------------------------------------|

E|------12--12------12------12----------12---12----|------12--12------12------12--13---12--------12---|
B|------------------------------15--15-------------|----------------------------------------15--------|
G|-%------------%-------%--------------------------|-%------------%-------%---------------------------|
D|-%------------%-------%--------------------------|-%------------%-------%---------------------------|
A|-------------------------------------------------|--------------------------------------------------|
E|-------------------------------------------------|--------------------------------------------------|

E|------12--12------12------12----------12---12----|------12--12------12------12--13---12---13---12---|
B|------------------------------15--15-------------|--------------------------------------------------|
G|-%------------%-------%--------------------------|-%------------%-------%---------------------------|
D|-%------------%-------%--------------------------|-%------------%-------%---------------------------|
A|-------------------------------------------------|--------------------------------------------------|
E|-------------------------------------------------|--------------------------------------------------|

E|----------12------13----------------12------13-------|----------12------13-------15---13--12---13--12------|
B|-15------------------------15------------------------|-15----------------------------------------------13--|
G|------%-------%-------%---------%-------%-------%----|------%-------%-------%------------------------------|
D|------%-------%-------%---------%-------%-------%----|------%-------%-------%------------------------------|
A|-----------------------------------------------------|-----------------------------------------------------|
E|-----------------------------------------------------|-----------------------------------------------------|

E|----------12------13----------------12------13-------|----------12------13-------15---13--12---13--12------|
B|-15------------------------15------------------------|-15----------------------------------------------13--|
G|------%-------%-------%---------%-------%-------%----|------%-------%-------%------------------------------|
D|------%-------%-------%---------%-------%-------%----|------%-------%-------%------------------------------|
A|-----------------------------------------------------|-----------------------------------------------------|
E|-----------------------------------------------------|-----------------------------------------------------|

E|----------12------13----------------12------13-------|----------12------13-------15---13--12---13--12------|
B|-15------------------------15------------------------|-15----------------------------------------------13--|
G|------%-------%-------%---------%-------%-------%----|------%-------%-------%------------------------------|
D|------%-------%-------%---------%-------%-------%----|------%-------%-------%------------------------------|
A|-----------------------------------------------------|-----------------------------------------------------|
E|-----------------------------------------------------|-----------------------------------------------------|

E|----------12------13----------------12------13-------|----------12------13-------15---13--12---13--12------|
B|-15------------------------15------------------------|-15----------------------------------------------13--|
G|------%-------%-------%---------%-------%-------%----|------%-------%-------%------------------------------|
D|------%-------%-------%---------%-------%-------%----|------%-------%-------%------------------------------|
A|-----------------------------------------------------|-----------------------------------------------------|
E|-----------------------------------------------------|-----------------------------------------------------|

E|-----------------------------------------------------------------|-----------------------------------------------------------------|
B|-----------------------------------------------------------------|-----------------------------------------------------------------|
G|-----------------------------------------------------------------|-----------------------------------------------------------------|
D|---------7---------------7---------------7---------------7-------|---------3---------------3---------------3---------------3-------|
A|-----7-------7-------7-------7-------7-------7-------7-------7---|-----3-------3-------3-------3-------3-------3-------3-------3---|
E|-5---------------5---------------5---------------5---------------|-1---------------1---------------1---------------1---------------|

E|-----------------------------------------------------------------|-----------------------------------------------------------|
B|-----------------------------------------------------------------|-----------------------------------------0---1---1----0----|
G|---------7---------------7---------------7---------------7-------|---------0---------------0---------------------------------|
D|-----7-------7-------7-------7-------7-------7-------7-------7---|-----0-------0-------0-------0-------0---------------------|
A|-5---------------5---------------5---------------5---------------|-----------------------------------------------------------|
E|-----------------------------------------------------------------|-3---------------3---------------3-------------------------|

E|-0-------|-----------------------------------------------------------------|-----------------------------------------------------------------|
B|-1-------|-----------------------------------------------------------------|-----------------------------------------------------------------|
G|-2-------|-----------------------------------------------------------------|---------7---------------7---------------7---------------7-------|
D|---------|---------3---------------3---------------3---------------3-------|-----7-------7-------7-------7-------7-------7-------7-------7---|
A|---------|-----3-------3-------3-------3-------3-------3-------3-------3---|-5---------------5---------------5---------------5---------------|
E|---------|-1---------------1---------------1---------------1---------------|-----------------------------------------------------------------|

E|-----------------------------------------------------------|-0-------|-----------------------------------------------------------------|
B|-----------------------------------------0---1---1----0----|-1-------|-----------------------------------------------------------------|
G|---------0---------------0---------------------------------|-2-------|-----------------------------------------------------------------|
D|-----0-------0-------0-------0-------0---------------------|---------|---------3---------------3---------------3---------------3-------|
A|-----------------------------------------------------------|---------|-----3-------3-------3-------3-------3-------3-------3-------3---|
E|-3---------------3---------------3-------------------------|---------|-1---------------1---------------1---------------1---------------|

E|-----------------------------------------------------------------|-----------------------------------------------------------|
B|-----------------------------------------------------------------|-----------------------------------------0---1---1----0----|
G|---------7---------------7---------------7---------------7-------|---------0---------------0---------------------------------|
D|-----7-------7-------7-------7-------7-------7-------7-------7---|-----0-------0-------0-------0-------0---------------------|
A|-5---------------5---------------5---------------5---------------|-----------------------------------------------------------|
E|-----------------------------------------------------------------|-3---------------3---------------3-------------------------|

E|-0-------|-----------------------------0---0----------------------------|-----------------------------------------------------------------|
B|-1-------|-------------------------------------1---1---0---0---1---1----|-----------------------------------------------------------------|
G|-2-------|--------------------------------------------------------------|---------7---------------7---------------7---------------7-------|
D|---------|---------3---------------3------------------------------------|-----7-------7-------7-------7-------7-------7-------7-------7---|
A|---------|-----3-------3-------3----------------------------------------|-5---------------5---------------5---------------5---------------|
E|---------|-1---------------1--------------------------------------------|-----------------------------------------------------------------|

E|-----------------------------------------------------|-----------------------------------------------------------------|
B|---------------------------------1----0----1----0----|-----------------------------------------------------------------|
G|---------0---------------0---------------------------|-----------------------------------------7---------------7-------|
D|-----0-------0-------0-------0-----------------------|---------7---------------7-----------7-------7-------7-------7---|
A|-----------------------------------------------------|-----7-------7-------7-------7---5---------------5---------------|
E|-3---------------3-----------------------------------|-5---------------5-----------------------------------------------|

E|-----------------------------------------------------------------|-----------------------------------------------------------------|
B|-----------------------------------------------------------------|-----------------------------------------------------------------|
G|---------5---------------5---------------------------------------|-----------------------------------------7---------------7-------|
D|-----5-------5-------5-------5-----------5---------------5-------|---------7---------------7-----------7-------7-------7-------7---|
A|-3---------------3-------------------5-------5-------5-------5---|-----7-------7-------7-------7---5---------------5---------------|
E|---------------------------------3---------------3---------------|-5---------------5-----------------------------------------------|

E|-----------------------------------------------------------------|-----------------------------------------------------------------|
B|-----------------------------------------------------------------|-----------------------------------------------------------------|
G|---------5---------------5---------------------------------------|-----------------------------------------7---------------7-------|
D|-----5-------5-------5-------5-----------5---------------5-------|---------7---------------7-----------7-------7-------7-------7---|
A|-3---------------3-------------------5-------5-------5-------5---|-----7-------7-------7-------7---5---------------5---------------|
E|---------------------------------3---------------3---------------|-5---------------5-----------------------------------------------|

E|-----------------------------------------------------------------|-----------------------------------------------------------------|
B|-----------------------------------------------------------------|-----------------------------------------------------------------|
G|---------5---------------5---------------------------------------|-----------------------------------------7---------------7-------|
D|-----5-------5-------5-------5-----------5---------------5-------|---------7---------------7-----------7-------7-------7-------7---|
A|-3---------------3-------------------5-------5-------5-------5---|-----7-------7-------7-------7---5---------------5---------------|
E|---------------------------------3---------------3---------------|-5---------------5-----------------------------------------------|

E|-----------------------------------------------------------------|---------------------------------|
B|-----------------------------------------------------------------|---------------------------------|
G|---------5---------------5---------------------------------------|---------------------------------|
D|-----5-------5-------5-------5-----------5---------------5-------|---------5---------------5-------|
A|-3---------------3-------------------5-------5-------5-------5---|-----5-------5-------5-------5---|
E|---------------------------------3---------------3---------------|-3---------------3---------------|

E|-------------------------------------------------------|-------------------------------------------------------|
B|-------------------------------------------------------|-------------------------------------------------------|
G|---------------------%-----------------------%---%-----|---------------------%-----------------------%---%-----|
D|-7---7---7---7---7---%---7---7---7---7---7---%---%-----|-3---3---3---3---3---%---3---3---3---3---3---%---%-----|
A|-7---7---7---7---7-------7---7---7---7---7-------------|-3---3---3---3---3-------3---3---3---3---3-------------|
E|-5---5---5---5---5-------5---5---5---5---5-------------|-1---1---1---1---1-------1---1---1---1---1-------------|

E|-------------------------------------------------------|-------------------------------------------------------|
B|-------------------------------------------------------|-------------------------------------------------------|
G|---------------------%-----------------------%---%-----|-7---7---7---7---7---%---7---7---7---7---7---%---%-----|
D|-5---5---5---5---5---%---5---5---5---5---5---%---%-----|-7---7---7---7---7---%---7---7---7---7---7---%---%-----|
A|-5---5---5---5---5-------5---5---5---5---5-------------|-5---5---5---5---5-------5---5---5---5---5-------------|
E|-3---3---3---3---3-------3---3---3---3---3-------------|-------------------------------------------------------|

E|-------------------------------------------------------|-------------------------------------------------------|
B|-------------------------------------------------------|-------------------------------------------------------|
G|---------------------%-----------------------%---%-----|---------------------%-----------------------%---%-----|
D|-7---7---7---7---7---%---7---7---7---7---7---%---%-----|-3---3---3---3---3---%---3---3---3---3---3---%---%-----|
A|-7---7---7---7---7-------7---7---7---7---7-------------|-3---3---3---3---3-------3---3---3---3---3-------------|
E|-5---5---5---5---5-------5---5---5---5---5-------------|-1---1---1---1---1-------1---1---1---1---1-------------|

E|-------------------------------------------------------|----------------------------------------------------|
B|-------------------------------------------------------|----------------------------------------------------|
G|---------------------%-----------------------%---%-----|-7---7---7---7---7---%---7---7---7---7---7----7-----|
D|-5---5---5---5---5---%---5---5---5---5---5---%---%-----|-7---7---7---7---7---%---7---7---7---7---7----7-----|
A|-5---5---5---5---5-------5---5---5---5---5-------------|-5---5---5---5---5-------5---5---5---5---5----5-----|
E|-3---3---3---3---3-------3---3---3---3---3-------------|----------------------------------------------------|

E|-----------------------------------------------------|-----------------------------------------------------|
B|-----------------------------------------------------|-----------------------------------------------------|
G|-----------------------------------------------------|-----------------------------------------------------|
D|-7----7---7---7---7---7----7---7---7----7---7---7----|-3---3---3----3---3---3----3---3---3----3---3---3----|
A|-7----7---7---7---7---7----7---7---7----7---7---7----|-3---3---3----3---3---3----3---3---3----3---3---3----|
E|-5----5---5---5---5---5----5---5---5----5---5---5----|-1---1---1----1---1---1----1---1---1----1---1---1----|

E|-----------------------------------------------------|-----------------------------------------------------|
B|-----------------------------------------------------|-----------------------------------------------------|
G|-7---7---7----7---7---7----7---7---7----7---7---7----|-----------------------------------------------------|
D|-7---7---7----7---7---7----7---7---7----7---7---7----|-5---5---5----5---5---5----5---5---5----5---5---5----|
A|-5---5---5----5---5---5----5---5---5----5---5---5----|-5---5---5----5---5---5----5---5---5----5---5---5----|
E|-----------------------------------------------------|-3---3---3----3---3---3----3---3---3----3---3---3----|

E|-----------------------------------------------------|-----------------------------------------------------|
B|-----------------------------------------------------|-----------------------------------------------------|
G|-----------------------------------------------------|-----------------------------------------------------|
D|-7---7---7----7---7---7----7---7---7----7---7---7----|-3---3---3----3---3---3----3---3---3----3---3---3----|
A|-7---7---7----7---7---7----7---7---7----7---7---7----|-3---3---3----3---3---3----3---3---3----3---3---3----|
E|-5---5---5----5---5---5----5---5---5----5---5---5----|-1---1---1----1---1---1----1---1---1----1---1---1----|

E|-----------------------------------------------------|-----------------------------------------------------|
B|-----------------------------------------------------|-----------------------------------------------------|
G|-7---7---7----7---7---7----7---7---7----7---7---7----|-----------------------------------------------------|
D|-7---7---7----7---7---7----7---7---7----7---7---7----|-5---5---5----5---5---5----5---5---5----5---5---5----|
A|-5---5---5----5---5---5----5---5---5----5---5---5----|-5---5---5----5---5---5----5---5---5----5---5---5----|
E|-----------------------------------------------------|-3---3---3----3---3---3----3---3---3----3---3---3----|

E|-----------------------------------------------------|-----------------------------------------------------|
B|-----------------------------------------------------|-----------------------------------------------------|
G|-----------------------------------------------------|-----------------------------------------------------|
D|-7---7---7----7---7---7----7---7---7----7---7---7----|-3---3---3----3---3---3----3---3---3----3---3---3----|
A|-7---7---7----7---7---7----7---7---7----7---7---7----|-3---3---3----3---3---3----3---3---3----3---3---3----|
E|-5---5---5----5---5---5----5---5---5----5---5---5----|-1---1---1----1---1---1----1---1---1----1---1---1----|

E|-----------------------------------------------------|-----------------------------------------------------|
B|-----------------------------------------------------|-----------------------------------------------------|
G|-7---7---7----7---7---7----7---7---7----7---7---7----|-----------------------------------------------------|
D|-7---7---7----7---7---7----7---7---7----7---7---7----|-5---5---5----5---5---5----5---5---5----5---5---5----|
A|-5---5---5----5---5---5----5---5---5----5---5---5----|-5---5---5----5---5---5----5---5---5----5---5---5----|
E|-----------------------------------------------------|-3---3---3----3---3---3----3---3---3----3---3---3----|

E|-----------------------------------------------------|-----------------------------------------------------|
B|-----------------------------------------------------|-----------------------------------------------------|
G|-----------------------------------------------------|-----------------------------------------------------|
D|-7---7---7----7---7---7----7---7---7----7---7---7----|-3---3---3----3---3---3----3---3---3----3---3---3----|
A|-7---7---7----7---7---7----7---7---7----7---7---7----|-3---3---3----3---3---3----3---3---3----3---3---3----|
E|-5---5---5----5---5---5----5---5---5----5---5---5----|-1---1---1----1---1---1----1---1---1----1---1---1----|

E|-----------------------------------------------------|-----------------------------------------------------|
B|-----------------------------------------------------|-----------------------------------------------------|
G|-7---7---7----7---7---7----7---7---7----7---7---7----|-----------------------------------------------------|
D|-7---7---7----7---7---7----7---7---7----7---7---7----|-5---5---5----5---5---5----5---5---5----5---5---5----|
A|-5---5---5----5---5---5----5---5---5----5---5---5----|-5---5---5----5---5---5----5---5---5----5---5---5----|
E|-----------------------------------------------------|-3---3---3----3---3---3----3---3---3----3---3---3----|

E|-----------------------------------------------------|-----------------------------------------------------|
B|-----------------------------------------------------|-----------------------------------------------------|
G|-----------------------------------7----7-------7----|---------5----5-------5------------------------------|
D|---------7----7-------7------------7----7-------7----|---------5----5-------5------------5----5-------5----|
A|---------7----7-------7----5---5---5----5---5---5----|-3---3---3----3---3---3------------5----5-------5----|
E|-5---5---5----5---5---5------------------------------|---------------------------3---3---3----3---3---3----|

E|-----------------------------------------------------|-----------------------------------------------------|
B|-----------------------------------------------------|-----------------------------------------------------|
G|-----------------------------------7----7-------7----|---------5----5-------5------------------------------|
D|---------7----7-------7------------7----7-------7----|---------5----5-------5------------5----5-------5----|
A|---------7----7-------7----5---5---5----5---5---5----|-3---3---3----3---3---3------------5----5-------5----|
E|-5---5---5----5---5---5------------------------------|---------------------------3---3---3----3---3---3----|

E|--------|-------------------------------------------------------|-------------------------------------------------------|
B|--------|-------------------------------------------------------|-------------------------------------------------------|
G|--------|---------------------%-----------------------%---%-----|---------------------%-----------------------%---%-----|
D|-5------|-7---7---7---7---7---%---7---7---7---7---7---%---%-----|-3---3---3---3---3---%---3---3---3---3---3---%---%-----|
A|-5------|-7---7---7---7---7-------7---7---7---7---7-------------|-3---3---3---3---3-------3---3---3---3---3-------------|
E|-3------|-5---5---5---5---5-------5---5---5---5---5-------------|-1---1---1---1---1-------1---1---1---1---1-------------|

E|-------------------------------------------------------|-------------------------------------------------------|
B|-------------------------------------------------------|-------------------------------------------------------|
G|---------------------%-----------------------%---%-----|-7---7---7---7---7---%---7---7---7---7---7---%---%-----|
D|-5---5---5---5---5---%---5---5---5---5---5---%---%-----|-7---7---7---7---7---%---7---7---7---7---7---%---%-----|
A|-5---5---5---5---5-------5---5---5---5---5-------------|-5---5---5---5---5-------5---5---5---5---5-------------|
E|-3---3---3---3---3-------3---3---3---3---3-------------|-------------------------------------------------------|

E|-----------------------------------------------------|-----------------------------------------------------|
B|-----------------------------------------------------|-----------------------------------------------------|
G|-----------------------------------------------------|-----------------------------------------------------|
D|-7---7---7----7---7---7----7---7---7----7---7---7----|-3---3---3----3---3---3----3---3---3----3---3---3----|
A|-7---7---7----7---7---7----7---7---7----7---7---7----|-3---3---3----3---3---3----3---3---3----3---3---3----|
E|-5---5---5----5---5---5----5---5---5----5---5---5----|-1---1---1----1---1---1----1---1---1----1---1---1----|

E|-----------------------------------------------------|-----------------------------------------------------|
B|-----------------------------------------------------|-----------------------------------------------------|
G|-----------------------------------------------------|-7---7---7----7---7---7----7---7---7----7---7---7----|
D|-5---5---5----5---5---5----5---5---5----5---5---5----|-7---7---7----7---7---7----7---7---7----7---7---7----|
A|-5---5---5----5---5---5----5---5---5----5---5---5----|-5---5---5----5---5---5----5---5---5----5---5---5----|
E|-3---3---3----3---3---3----3---3---3----3---3---3----|-----------------------------------------------------|

E|-----------------------------------------------------|--------------------------------------------------------|
B|-----------------------------------------------------|-------------------------------8------------------------|
G|------9---7---9----9---7---9---7---9----9----9---7---|-9---7---9----9----7---9---10------10--%---9----7---9---|
D|-7---------------------------------------------------|---------------------------------------%----------------|
A|-----------------------------------------------------|--------------------------------------------------------|
E|-----------------------------------------------------|--------------------------------------------------------|

E|--------------------------------------------------------|-----------------------------------------------------|
B|--------------------------------------------------------|-----------------------------------------------------|
G|-7--------%-----------------------------------------7---|----------%--------%----------------------------9----|
D|------10--%---10---10--9---10--9---10--9---10---10------|-10---9---%---9----%---7---9---7---9---7---7---------|
A|--------------------------------------------------------|-----------------------------------------------------|
E|--------------------------------------------------------|-----------------------------------------------------|

E|-----------------------------------------------------|--------------------------------------------------------|
B|-----------------------------------------------------|-------------------------------8------------------------|
G|------9---7---9----9---7---9---7---9----9----9---7---|-9---7---9----9----7---9---10------10--%---9----7---9---|
D|-7---------------------------------------------------|---------------------------------------%----------------|
A|-----------------------------------------------------|--------------------------------------------------------|
E|-----------------------------------------------------|--------------------------------------------------------|

E|--------------------------------------------------------|-----------------------------------------------------|
B|--------------------------------------------------------|-----------------------------------------------------|
G|-7--------%-----------------------------------------7---|----------%--------%----------------------------9----|
D|------10--%---10---10--9---10--9---10--9---10---10------|-10---9---%---9----%---7---9---7---9---7---7---------|
A|--------------------------------------------------------|-----------------------------------------------------|
E|--------------------------------------------------------|-----------------------------------------------------|

E|-------------------------------------------------|--------------------------------------------------|
B|-------------------------------------------------|--------------------------------------------------|
G|-%----9---9---%---9---%---9---7---%---9----9-----|-%----9---9---%---9---%---9---10---9----7----9----|
D|-%------------%-------%-----------%--------------|-%------------%-------%---------------------------|
A|-------------------------------------------------|--------------------------------------------------|
E|-------------------------------------------------|--------------------------------------------------|

E|-------------------------------------------------|--------------------------------------------------|
B|-------------------------------------------------|--------------------------------------------------|
G|-%----9---9---%---9---%---9---7---%---9----9-----|-%----9---9---%---9---%---9---10---9----7----9----|
D|-%------------%-------%-----------%--------------|-%------------%-------%---------------------------|
A|-------------------------------------------------|--------------------------------------------------|
E|-------------------------------------------------|--------------------------------------------------|

E|-------------------------------------------------|--------------------------------------------------|
B|-------------------------------------------------|--------------------------------------------------|
G|-%----9---9---%---9---%---9---7---%---9----9-----|-%----9---9---%---9---%---9---10---9----7----9----|
D|-%------------%-------%-----------%--------------|-%------------%-------%---------------------------|
A|-------------------------------------------------|--------------------------------------------------|
E|-------------------------------------------------|--------------------------------------------------|

E|-------------------------------------------------|--------------------------------------------------|
B|-------------------------------------------------|--------------------------------------------------|
G|-%----9---9---%---9---%---9---7---%---9----9-----|-%----9---9---%---9---%---9---10---9----10---9----|
D|-%------------%-------%-----------%--------------|-%------------%-------%---------------------------|
A|-------------------------------------------------|--------------------------------------------------|
E|-------------------------------------------------|--------------------------------------------------|

E|--------------------------------------------------------|------------------------------10---------------------------|
B|-10-------12------13----------10-------12------13-------|-10-------12------13---------------13--12--12--13--12------|
G|------%-------%-------%---%--------%-------%-------%----|------%-------%-------%---%----------------------------12--|
D|------%-------%-------%---%--------%-------%-------%----|------%-------%-------%---%--------------------------------|
A|--------------------------------------------------------|-----------------------------------------------------------|
E|--------------------------------------------------------|-----------------------------------------------------------|

E|--------------------------------------------------------|------------------------------10---------------------------|
B|-10-------12------13----------10-------12------13-------|-10-------12------13---------------13--12--12--13--12------|
G|------%-------%-------%---%--------%-------%-------%----|------%-------%-------%---%----------------------------12--|
D|------%-------%-------%---%--------%-------%-------%----|------%-------%-------%---%--------------------------------|
A|--------------------------------------------------------|-----------------------------------------------------------|
E|--------------------------------------------------------|-----------------------------------------------------------|

E|--------------------------------------------------------|------------------------------10---------------------------|
B|-10-------12------13----------10-------12------13-------|-10-------12------13---------------13--12--12--13--12------|
G|------%-------%-------%---%--------%-------%-------%----|------%-------%-------%---%----------------------------12--|
D|------%-------%-------%---%--------%-------%-------%----|------%-------%-------%---%--------------------------------|
A|--------------------------------------------------------|-----------------------------------------------------------|
E|--------------------------------------------------------|-----------------------------------------------------------|

E|--------------------------------------------------------|------------------------------10---------------------------|
B|-10-------12------13----------10-------12------13-------|-10-------12------13---------------13--12--12--13--12------|
G|------%-------%-------%---%--------%-------%-------%----|------%-------%-------%---%----------------------------12--|
D|------%-------%-------%---%--------%-------%-------%----|------%-------%-------%---%--------------------------------|
A|--------------------------------------------------------|-----------------------------------------------------------|
E|--------------------------------------------------------|-----------------------------------------------------------|

E|-------------------------------------------------|---------12--15--12------12--15--12------12--15--12----------12-15-12------|
B|-------------------------------------------------|-----13--------------15--------------15--------------15--15------------15--|
G|-7----9---9---9---9---9---9---9---9---9---9------|-14------------------------------------------------------------------------|
D|-------------------------------------------------|---------------------------------------------------------------------------|
A|-------------------------------------------------|---------------------------------------------------------------------------|
E|-------------------------------------------------|---------------------------------------------------------------------------|

E|----12-17--12-----------------------------------------------------------|-------------------------------------12--15----15----|
B|-13------------13--12-13-12----12-13-12---------------------------------|-12-15-12-15---------------------13------------------|
G|----------------------------14-----------14---14-14-12--14--12----------|-------------12-14-12-14-7---14----------------------|
D|----------------------------------------------------------------14--12--|-----------------------------------------------------|
A|------------------------------------------------------------------------|-----------------------------------------------------|
E|------------------------------------------------------------------------|-----------------------------------------------------|

E|-----------17---20--19-20-19--17--19-----|-20---19---17-------------------------|
B|------17---------------------------------|----------------20---18---17----------|
G|-17--------------------------------------|-------------------------------19-----|
D|-----------------------------------------|--------------------------------------|
A|-----------------------------------------|--------------------------------------|
E|-----------------------------------------|--------------------------------------|

E|-------17-----------------------------------------------|-------------------------------17-20-17----------------|
B|----17----17--------------------------------17--20--17--|-----17-20-17--------17-20-17-----------17-20----20----|
G|-19----------19---19--17-19-19---19----19---------------|-19-----------19-19------------------------------------|
D|--------------------------------------------------------|-------------------------------------------------------|
A|--------------------------------------------------------|-------------------------------------------------------|
E|--------------------------------------------------------|-------------------------------------------------------|

E|-------------------------------------------|-----------------------------------------------------------|
B|-------------------------------------------|-------------------------------8--------------8---10--10---|
G|-------------------------------------------|-7--------------9---------7---------9----10----------------|
D|-7-----7-----7----9----10---7----9----10---|------9----10--------10------------------------------------|
A|-------------------------------------------|-----------------------------------------------------------|
E|-------------------------------------------|-----------------------------------------------------------|

E|-----------5---8---5-----------------------5--------------------------------|-----------------------------------------------------------|
B|-10---8----------------5---8---5-------5-------8---5------------------------|------------------------------8----------------------------|
G|-----------------------------------7-------------------7---5-------5---7----|-7--------7---9---10--9---7-------9---10-------------------|
D|---------------------------------------------------------------7------------|------7-----------------------------------10--9---10--10---|
A|----------------------------------------------------------------------------|-----------------------------------------------------------|
E|----------------------------------------------------------------------------|-----------------------------------------------------------|

E|-12--17--12--------------12--17--12--------------12--17--12--------------12--17--12----------|
B|-------------13------13--------------13------13--------------13------13----------------------|
G|-----------------14----------------------14----------------------14------------------14--14--|
D|---------------------------------------------------------------------------------------------|
A|---------------------------------------------------------------------------------------------|
E|---------------------------------------------------------------------------------------------|

E|----------------------------------------------------|-----------------------------------------12----------12--13------|
B|----------------------------------------------------|-----12--13------12--13--15--12--13--15------13--15----------15--|
G|-14----14--12--10------12------10------9------------|-14----------14--------------------------------------------------|
D|-------------------14------14------12---------------|-----------------------------------------------------------------|
A|-------------------------------------------12--12---|-----------------------------------------------------------------|
E|----------------------------------------------------|-----------------------------------------------------------------|

E|-------------------------------17--------17---19----|--------------------------------------------------|
B|-17---18---20---17---18---20--------20--------------|--------------------------------------------------|
G|----------------------------------------------------|-7-----7-----7----7---5---4--5--4--5--4--5--4--5--|
D|----------------------------------------------------|--------------------------------------------------|
A|----------------------------------------------------|--------------------------------------------------|
E|----------------------------------------------------|--------------------------------------------------|

E|-------------------------------------------------------------------|------------------------------------------------------|
B|-------------------------------------------------------------------|-15----15--15--13--12--13--15-13-12--13--15---13------|
G|-4--5--4--5--4--5--4--5--4--5--4--5--5--7--5--7--7-----------------|--------------------------------------------------14--|
D|-------------------------------------------------------7--5--------|------------------------------------------------------|
A|-------------------------------------------------------------7-----|------------------------------------------------------|
E|-------------------------------------------------------------------|------------------------------------------------------|

E|-------------12--12--------------------------------------|----------------------------------17----------17--19--20--22--|
B|-12--13--15----------15--13--12--15--13-12---------------|------17------17--18--17--18--20------18--20------------------|
G|-------------------------------------------14--12--12----|-19-------19--------------------------------------------------|
D|---------------------------------------------------------|--------------------------------------------------------------|
A|---------------------------------------------------------|--------------------------------------------------------------|
E|---------------------------------------------------------|--------------------------------------------------------------|

E|-22--20--19--17------17--------------------17----------|--------------------------------------------------------------------|
B|-----------------17------17--20--20----17------17--20--|-20-----------------------------------------------------------------|
G|-------------------------------------------------------|------19--17--12-14-12-14-12-14-------------------------------------|
D|-------------------------------------------------------|--------------------------------12-14-12-14-12-14-10-12-10-12-------|
A|-------------------------------------------------------|--------------------------------------------------------------12----|
E|-------------------------------------------------------|--------------------------------------------------------------------|

E|-------------------------------------------------------------------------------|-----------------------------------------------------|
B|-17-20-17----17-20-17----17-20-17----17-20-17----17-20-17----17-20-17----20----|-----------------------------------------------------|
G|----------19----------19----------19----------19----------19----------19-------|-----------------------------------7----7-------7----|
D|-------------------------------------------------------------------------------|---------7----7-------7------------7----7-------7----|
A|-------------------------------------------------------------------------------|---------7----7-------7----5---5---5----5---5---5----|
E|-------------------------------------------------------------------------------|-5---5---5----5---5---5------------------------------|

E|-----------------------------------------------------|-----------------------------------------------------|
B|-----------------------------------------------------|-----------------------------------------------------|
G|---------5----5-------5------------------------------|-----------------------------------7----7-------7----|
D|---------5----5-------5------------5----5-------5----|---------7----7-------7------------7----7-------7----|
A|-3---3---3----3---3---3------------5----5-------5----|---------7----7-------7----5---5---5----5---5---5----|
E|---------------------------3---3---3----3---3---3----|-5---5---5----5---5---5------------------------------|

E|-----------------------------------------------------|-----------------------------------------------------|
B|-----------------------------------------------------|-----------------------------------------------------|
G|---------5----5-------5------------------------------|-----------------------------------7----7-------7----|
D|---------5----5-------5------------5----5-------5----|---------7----7-------7------------7----7-------7----|
A|-3---3---3----3---3---3------------5----5-------5----|---------7----7-------7----5---5---5----5---5---5----|
E|---------------------------3---3---3----3---3---3----|-5---5---5----5---5---5------------------------------|

E|-----------------------------------------------------|-----------------------------------------------------|
B|-----------------------------------------------------|-----------------------------------------------------|
G|---------5----5-------5------------------------------|-----------------------------------7----7-------7----|
D|---------5----5-------5------------5----5-------5----|---------7----7-------7------------7----7-------7----|
A|-3---3---3----3---3---3------------5----5-------5----|---------7----7-------7----5---5---5----5---5---5----|
E|---------------------------3---3---3----3---3---3----|-5---5---5----5---5---5------------------------------|

E|-----------------------------------------------------|--------|-------------------------------------------------------|
B|-----------------------------------------------------|--------|-------------------------------------------------------|
G|---------5----5-------5------------------------------|--------|---------------------%-----------------------%---%-----|
D|---------5----5-------5------------5----5-------5----|-5------|-7---7---7---7---7---%---7---7---7---7---7---%---%-----|
A|-3---3---3----3---3---3------------5----5-------5----|-5------|-7---7---7---7---7-------7---7---7---7---7-------------|
E|---------------------------3---3---3----3---3---3----|-3------|-5---5---5---5---5-------5---5---5---5---5-------------|

E|-------------------------------------------------------|-------------------------------------------------------|
B|-------------------------------------------------------|-------------------------------------------------------|
G|---------------------%-----------------------%---%-----|---------------------%-----------------------%---%-----|
D|-3---3---3---3---3---%---3---3---3---3---3---%---%-----|-5---5---5---5---5---%---5---5---5---5---5---%---%-----|
A|-3---3---3---3---3-------3---3---3---3---3-------------|-5---5---5---5---5-------5---5---5---5---5-------------|
E|-1---1---1---1---1-------1---1---1---1---1-------------|-3---3---3---3---3-------3---3---3---3---3-------------|

E|-------------------------------------------------------|-----------------------------------------------------|
B|-------------------------------------------------------|-----------------------------------------------------|
G|-7---7---7---7---7---%---7---7---7---7---7---%---%-----|-----------------------------------------------------|
D|-7---7---7---7---7---%---7---7---7---7---7---%---%-----|-7---7---7----7---7---7----7---7---7----7---7---7----|
A|-5---5---5---5---5-------5---5---5---5---5-------------|-7---7---7----7---7---7----7---7---7----7---7---7----|
E|-------------------------------------------------------|-5---5---5----5---5---5----5---5---5----5---5---5----|

E|-----------------------------------------------------|-----------------------------------------------------|
B|-----------------------------------------------------|-----------------------------------------------------|
G|-----------------------------------------------------|-----------------------------------------------------|
D|-3---3---3----3---3---3----3---3---3----3---3---3----|-5---5---5----5---5---5----5---5---5----5---5---5----|
A|-3---3---3----3---3---3----3---3---3----3---3---3----|-5---5---5----5---5---5----5---5---5----5---5---5----|
E|-1---1---1----1---1---1----1---1---1----1---1---1----|-3---3---3----3---3---3----3---3---3----3---3---3----|

E|-----------------------------------------------------|-----------------------------------------------------|
B|-----------------------------------------------------|-----------------------------------------------------|
G|-7---7---7----7---7---7----7---7---7----7---7---7----|-----------------------------------------------------|
D|-7---7---7----7---7---7----7---7---7----7---7---7----|-7---7---7----7---7---7----7---7---7----7---7---7----|
A|-5---5---5----5---5---5----5---5---5----5---5---5----|-7---7---7----7---7---7----7---7---7----7---7---7----|
E|-----------------------------------------------------|-5---5---5----5---5---5----5---5---5----5---5---5----|

E|-----------------------------------------------------|-----------------------------------------------------|
B|-----------------------------------------------------|-----------------------------------------------------|
G|-----------------------------------------------------|-----------------------------------------------------|
D|-3---3---3----3---3---3----3---3---3----3---3---3----|-5---5---5----5---5---5----5---5---5----5---5---5----|
A|-3---3---3----3---3---3----3---3---3----3---3---3----|-5---5---5----5---5---5----5---5---5----5---5---5----|
E|-1---1---1----1---1---1----1---1---1----1---1---1----|-3---3---3----3---3---3----3---3---3----3---3---3----|

E|-----------------------------------------------------|-----------------------------------------------------|
B|-----------------------------------------------------|-----------------------------------------------------|
G|-7---7---7----7---7---7----7---7---7----7---7---7----|------9---7---9----9---7---9---7---9----9----9---7---|
D|-7---7---7----7---7---7----7---7---7----7---7---7----|-7---------------------------------------------------|
A|-5---5---5----5---5---5----5---5---5----5---5---5----|-----------------------------------------------------|
E|-----------------------------------------------------|-----------------------------------------------------|

E|--------------------------------------------------------|--------------------------------------------------------|
B|-------------------------------8------------------------|--------------------------------------------------------|
G|-9---7---9----9----7---9---10------10--%---9----7---9---|-7--------%-----------------------------------------7---|
D|---------------------------------------%----------------|------10--%---10---10--9---10--9---10--9---10---10------|
A|--------------------------------------------------------|--------------------------------------------------------|
E|--------------------------------------------------------|--------------------------------------------------------|

E|-----------------------------------------------------|-----------------------------------------------------|
B|-----------------------------------------------------|-----------------------------------------------------|
G|----------%--------%----------------------------9----|------9---7---9----9---7---9---7---9----9----9---7---|
D|-10---9---%---9----%---7---9---7---9---7---7---------|-7---------------------------------------------------|
A|-----------------------------------------------------|-----------------------------------------------------|
E|-----------------------------------------------------|-----------------------------------------------------|

E|--------------------------------------------------------|--------------------------------------------------------|
B|-------------------------------8------------------------|--------------------------------------------------------|
G|-9---7---9----9----7---9---10------10--%---9----7---9---|-7--------%-----------------------------------------7---|
D|---------------------------------------%----------------|------10--%---10---10--9---10--9---10--9---10---10------|
A|--------------------------------------------------------|--------------------------------------------------------|
E|--------------------------------------------------------|--------------------------------------------------------|

E|-----------------------------------------------------|-------------------------------------------------|
B|-----------------------------------------------------|-------------------------------------------------|
G|----------%--------%----------------------------9----|-%----9---9---%---9---%---9---7---%---9----9-----|
D|-10---9---%---9----%---7---9---7---9---7---7---------|-%------------%-------%-----------%--------------|
A|-----------------------------------------------------|-------------------------------------------------|
E|-----------------------------------------------------|-------------------------------------------------|

E|--------------------------------------------------|-------------------------------------------------|
B|--------------------------------------------------|-------------------------------------------------|
G|-%----9---9---%---9---%---9---10---9----7----9----|-%----9---9---%---9---%---9---7---%---9----9-----|
D|-%------------%-------%---------------------------|-%------------%-------%-----------%--------------|
A|--------------------------------------------------|-------------------------------------------------|
E|--------------------------------------------------|-------------------------------------------------|

E|--------------------------------------------------|---------|---------|
B|--------------------------------------------------|---------|---------|
G|-%----9---9---%---9---%---9---10---9----7----9----|-9-------|-9-------|
D|-%------------%-------%---------------------------|---------|---------|
A|--------------------------------------------------|---------|---------|
E|--------------------------------------------------|---------|---------|
Iron Maiden - No More Lies (2)
Iron Maiden - No More Lies (2).gp3