Iron Maiden - Only the Good Die Young

Iron Maiden - Only the Good Die Young

Iron Maiden



Title: Only the Good Die Young
Album: Seventh Son Of A Seventh Son
Artist: Iron Maiden
Author: 

Track 1: Fills & Solo (distortion)
E|-------------|---------|-----------------------------------------|----------------------------|
B|-------------|---------|---------------------12------------------|----------------------------|
G|-------11----|-12------|-12--------12---14--------14---12--------|-12---12---14---12---12-----|
D|-14----------|---------|------14----------------------------14---|----------------------------|
A|-------------|---------|-----------------------------------------|----------------------------|
E|-------------|---------|-----------------------------------------|----------------------------|

E|-----------------------------------------|----------------------------|-----------------------------------------|
B|---------------------12------------------|----------------------------|---------------------12------------------|
G|-12--------12---14--------14---12--------|-11---11---12---11---11-----|-11--------12---14--------14---12--------|
D|------14----------------------------14---|----------------------------|------14----------------------------14---|
A|-----------------------------------------|----------------------------|-----------------------------------------|
E|-----------------------------------------|----------------------------|-----------------------------------------|

E|----------------------------------------|---------------|---------|-----------------------------------------|
B|----------------------------------------|---------------|---------|---------------------12------------------|
G|-12---12---14---12---12----11--12--11---|---------11----|-12------|-12--------12---14--------14---12--------|
D|----------------------------------------|-14------------|---------|------14----------------------------14---|
A|----------------------------------------|---------------|---------|-----------------------------------------|
E|----------------------------------------|---------------|---------|-----------------------------------------|

E|----------------------------|-----------------------------------------|----------------------------|
B|----------------------------|---------------------12------------------|----------------------------|
G|-12---12---14---12---12-----|-12--------12---14--------14---12--------|-11---11---12---11---11-----|
D|----------------------------|------14----------------------------14---|----------------------------|
A|----------------------------|-----------------------------------------|----------------------------|
E|----------------------------|-----------------------------------------|----------------------------|

E|-----------------------------------------|----------------------------------------|
B|---------------------12------------------|----------------------------------------|
G|-11--------12---14--------14---12--------|-12---12---14---12---12----11--12--11---|
D|------14----------------------------14---|----------------------------------------|
A|-----------------------------------------|----------------------------------------|
E|-----------------------------------------|----------------------------------------|

E|---------|---------|---------|---------|---------|---------|---------|---------|---------|
B|---------|---------|---------|---------|---------|---------|---------|---------|---------|
G|---------|-%-------|-%-------|-%-------|-%-------|-%-------|-%-------|-%-------|-%-------|
D|-14------|-%-------|-%-------|-%-------|-%-------|-%-------|-%-------|-%-------|-%-------|
A|---------|---------|---------|---------|---------|---------|---------|---------|---------|
E|---------|---------|---------|---------|---------|---------|---------|---------|---------|

E|---------|---------|---------|---------|---------|---------|---------|---------|---------|
B|---------|---------|---------|---------|---------|---------|---------|---------|---------|
G|-%-------|-%-------|-%-------|-%-------|-%-------|-%-------|-%-------|-%-------|-%-------|
D|-%-------|-%-------|-%-------|-%-------|-%-------|-%-------|-%-------|-%-------|-%-------|
A|---------|---------|---------|---------|---------|---------|---------|---------|---------|
E|---------|---------|---------|---------|---------|---------|---------|---------|---------|

E|---------|---------|---------|---------|---------|---------|---------|---------|---------|
B|---------|---------|---------|---------|---------|---------|---------|---------|---------|
G|-%-------|-%-------|-%-------|-%-------|-%-------|-%-------|-%-------|-%-------|-%-------|
D|-%-------|-%-------|-%-------|-%-------|-%-------|-%-------|-%-------|-%-------|-%-------|
A|---------|---------|---------|---------|---------|---------|---------|---------|---------|
E|---------|---------|---------|---------|---------|---------|---------|---------|---------|

E|---------|---------|---------|---------|---------|---------|---------|---------|---------|
B|---------|---------|---------|---------|---------|---------|---------|---------|---------|
G|-%-------|-%-------|-%-------|-%-------|-%-------|-%-------|-%-------|-%-------|-%-------|
D|-%-------|-%-------|-%-------|-%-------|-%-------|-%-------|-%-------|-%-------|-%-------|
A|---------|---------|---------|---------|---------|---------|---------|---------|---------|
E|---------|---------|---------|---------|---------|---------|---------|---------|---------|

E|---------|---------|------------------------|-----------------------------------------|
B|---------|---------|------------------------|-----------------------------------------|
G|-%-------|-%-------|-%------%-----%---------|-----------------------------------------|
D|-%-------|-%-------|-%------%-----%---------|------3---------6----6----5----3---------|
A|---------|---------|-------------------4----|-4---------4------------------------6----|
E|---------|---------|------------------------|-----------------------------------------|

E|-----------------------------------------|--------------------|------------------------|
B|-----------------------------------------|--------------------|------------------------|
G|-----------------------------------------|-------%-----%------|-%------%-----%---------|
D|------5---------6----6----5--------------|-------%-----%------|-%------%-----%---------|
A|-6---------6-------------------6----8----|-8------------------|-------------------4----|
E|-----------------------------------------|--------------------|------------------------|

E|-----------------------------------------|-----------------------------------------|
B|-----------------------------------------|------------------------------------14---|
G|-----------------------------------------|-----------------------------------------|
D|------3---------6----6----5----3---------|------5---------6----6----5--------------|
A|-4---------4------------------------6----|-6---------6-------------------6---------|
E|-----------------------------------------|-----------------------------------------|

E|------------------17---14--------|---------------------------------|-------------------|
B|--------17---14-------------14---|-14---14---12----14----14---12---|-------------------|
G|-16------------------------------|---------------------------------|-11------11---11---|
D|---------------------------------|---------------------------------|-------------------|
A|---------------------------------|---------------------------------|-------------------|
E|---------------------------------|---------------------------------|-------------------|

E|-------------------------------------------------------------|-------------------------------------|
B|-------------------------------------------------------------|-------9-----9-----7-----------------|
G|----------------------------------------------2----0---------|-%-----------------------6-----------|
D|-------------------------------2----3----4--------------4----|-%-----------------------------7-----|
A|----------------2----3----4----------------------------------|-------------------------------------|
E|-2----4----5-------------------------------------------------|-------------------------------------|

E|-------------------------------------|-------------------------------------------------|
B|-------------------------------------|-------------------------------------------------|
G|-------------6-----9-----7-----6-----|-6---7---6---7---6----7----9---7---9---7---7-----|
D|-4-----7-----------------------------|-------------------------------------------------|
A|-------------------------------------|-------------------------------------------------|
E|-------------------------------------|-------------------------------------------------|

E|---------------|-------------------------------------------------------------|-------------------------------------------------------------|
B|---------------|-------------------------------5-------------------6----3----|-4-------------------5----2----3----2----0-------------------|
G|-7-------%-----|----------------4----6----7---------7----6----4--------------|------6----5----3-----------------------------2----0---------|
D|---------%-----|-4----6----7-------------------------------------------------|--------------------------------------------------------4----|
A|---------------|-------------------------------------------------------------|-------------------------------------------------------------|
E|---------------|-------------------------------------------------------------|-------------------------------------------------------------|

E|---------------|-------------------16-----16---|-14----------------------------------|
B|---------------|-------------14----------------|-------14----------------------15----|
G|---------------|-------14----------------------|-------------14----------14----------|
D|-4-------4-----|-16----------------------------|-------------------16----------------|
A|---------------|-------------------------------|-------------------------------------|
E|---------------|-------------------------------|-------------------------------------|

E|-------------------------------------|--------------------------------14--16--17-------|
B|-17----15----14----15----14----------|-14--14--14---14----14--16--17--------------14---|
G|-------------------------------16----|-------------------------------------------------|
D|-------------------------------------|-------------------------------------------------|
A|-------------------------------------|-------------------------------------------------|
E|-------------------------------------|-------------------------------------------------|

E|-----14--17---17---17---14---19-----19---|---------|---------|---------|---------|
B|-17--------------------------------------|---------|---------|---------|---------|
G|-----------------------------------------|-%-------|-%-------|-%-------|-%-------|
D|-----------------------------------------|-%-------|-%-------|-%-------|-%-------|
A|-----------------------------------------|---------|---------|---------|---------|
E|-----------------------------------------|---------|---------|---------|---------|

E|---------|---------|---------|--------------------|---------|-----------------------------------------|
B|---------|---------|---------|--------------------|---------|---------------------12------------------|
G|-%-------|-%-------|-%-------|-%------------11----|-12------|-12--------12---14--------14---12--------|
D|-%-------|-%-------|-%-------|-%------14----------|---------|------14----------------------------14---|
A|---------|---------|---------|--------------------|---------|-----------------------------------------|
E|---------|---------|---------|--------------------|---------|-----------------------------------------|

E|----------------------------|-----------------------------------------|----------------------------|
B|----------------------------|---------------------12------------------|----------------------------|
G|-12---12---14---12---12-----|-12--------12---14--------14---12--------|-11---11---12---11---11-----|
D|----------------------------|------14----------------------------14---|----------------------------|
A|----------------------------|-----------------------------------------|----------------------------|
E|----------------------------|-----------------------------------------|----------------------------|

E|-----------------------------------------|----------------------------------------|
B|---------------------12------------------|----------------------------------------|
G|-11--------12---14--------14---12--------|-12---12---14---12---12----11--12--11---|
D|------14----------------------------14---|----------------------------------------|
A|-----------------------------------------|----------------------------------------|
E|-----------------------------------------|----------------------------------------|

E|---------------|---------|-----------------------------------------|----------------------------|
B|---------------|---------|---------------------12------------------|----------------------------|
G|---------11----|-12------|-12--------12---14--------14---12--------|-12---12---14---12---12-----|
D|-14------------|---------|------14----------------------------14---|----------------------------|
A|---------------|---------|-----------------------------------------|----------------------------|
E|---------------|---------|-----------------------------------------|----------------------------|

E|-----------------------------------------|----------------------------|-----------------------------------------|
B|---------------------12------------------|----------------------------|---------------------12------------------|
G|-12--------12---14--------14---12--------|-11---11---12---11---11-----|-11--------12---14--------14---12--------|
D|------14----------------------------14---|----------------------------|------14----------------------------14---|
A|-----------------------------------------|----------------------------|-----------------------------------------|
E|-----------------------------------------|----------------------------|-----------------------------------------|

E|----------------------------------------|---------|---------|---------|---------|
B|----------------------------------------|---------|---------|---------|---------|
G|-12---12---14---12---12----11--12--11---|---------|-%-------|-%-------|-%-------|
D|----------------------------------------|-14------|-%-------|-%-------|-%-------|
A|----------------------------------------|---------|---------|---------|---------|
E|----------------------------------------|---------|---------|---------|---------|

E|---------|---------|---------|---------|---------|---------|---------|---------|---------|
B|---------|---------|---------|---------|---------|---------|---------|---------|---------|
G|-%-------|-%-------|-%-------|-%-------|-%-------|-%-------|-%-------|-%-------|-%-------|
D|-%-------|-%-------|-%-------|-%-------|-%-------|-%-------|-%-------|-%-------|-%-------|
A|---------|---------|---------|---------|---------|---------|---------|---------|---------|
E|---------|---------|---------|---------|---------|---------|---------|---------|---------|

E|---------|---------|---------|---------|---------|---------|---------|---------|---------|
B|---------|---------|---------|---------|---------|---------|---------|---------|---------|
G|-%-------|-%-------|-%-------|-%-------|-%-------|-%-------|-%-------|-%-------|-%-------|
D|-%-------|-%-------|-%-------|-%-------|-%-------|-%-------|-%-------|-%-------|-%-------|
A|---------|---------|---------|---------|---------|---------|---------|---------|---------|
E|---------|---------|---------|---------|---------|---------|---------|---------|---------|

E|---------|---------|---------|---------|---------|---------|---------|---------|---------|
B|---------|---------|---------|---------|---------|---------|---------|---------|---------|
G|-%-------|-%-------|-%-------|-%-------|-%-------|-%-------|-%-------|-%-------|-%-------|
D|-%-------|-%-------|-%-------|-%-------|-%-------|-%-------|-%-------|-%-------|-%-------|
A|---------|---------|---------|---------|---------|---------|---------|---------|---------|
E|---------|---------|---------|---------|---------|---------|---------|---------|---------|

E|---------|---------|---------|---------|---------|---------|---------|------------------------|
B|---------|---------|---------|---------|---------|---------|---------|------------------------|
G|-%-------|-%-------|-%-------|-%-------|-%-------|-%-------|-%-------|-%------%-----%---------|
D|-%-------|-%-------|-%-------|-%-------|-%-------|-%-------|-%-------|-%------%-----%---------|
A|---------|---------|---------|---------|---------|---------|---------|-------------------4----|
E|---------|---------|---------|---------|---------|---------|---------|------------------------|

E|-----------------------------------------|-----------------------------------------|
B|-----------------------------------------|-----------------------------------------|
G|-----------------------------------------|-----------------------------------------|
D|------3---------6----6----5----3---------|------5---------6----6----5--------------|
A|-4---------4------------------------6----|-6---------6-------------------6----8----|
E|-----------------------------------------|-----------------------------------------|

E|--------------------|------------------------|-----------------------------------------|
B|--------------------|------------------------|-----------------------------------------|
G|-------%-----%------|-%------%-----%---------|-----------------------------------------|
D|-------%-----%------|-%------%-----%---------|------3---------6----6----5----3---------|
A|-8------------------|-------------------4----|-4---------4------------------------6----|
E|--------------------|------------------------|-----------------------------------------|

E|-----------------------------------------|---------|----------------------------------------|
B|-----------------------------------------|---------|------------14---15--14-------14---15---|
G|------------------------------------13---|-13------|-13----14----------------16-------------|
D|------5---------6----6----5--------------|---------|----------------------------------------|
A|-6---------6-------------------6---------|---------|----------------------------------------|
E|-----------------------------------------|---------|----------------------------------------|

E|-16------16---16--14--|--------------------------|------16---17---19---19-----|-19----19----17----16----17----16----|
B|----------------------|-14-----14----15----17----|-19-------------------------|-------------------------------------|
G|----------------------|--------------------------|----------------------------|-------------------------------------|
D|----------------------|--------------------------|----------------------------|-------------------------------------|
A|----------------------|--------------------------|----------------------------|-------------------------------------|
E|----------------------|--------------------------|----------------------------|-------------------------------------|

E|---------|---------------|---------|--------------------|--------------|--------------|
B|-20------|-20------------|---------|-------15-----------|--------------|--------------|
G|---------|---------%-----|---------|-------------%------|-%------%-----|-%------%-----|
D|---------|---------%-----|-9-------|-9-----------%------|-%------%-----|-%------%-----|
A|---------|---------------|-7-------|-7------------------|--------------|--------------|
E|---------|---------------|-0-------|-0------------------|--------------|--------------|

E|--------------|--------------|--------------|--------------|--------------|--------------|
B|--------------|--------------|--------------|--------------|--------------|--------------|
G|-%------%-----|-%------%-----|-%------%-----|-%------%-----|-%------%-----|-%------%-----|
D|-%------%-----|-%------%-----|-%------%-----|-%------%-----|-%------%-----|-%------%-----|
A|--------------|--------------|--------------|--------------|--------------|--------------|
E|--------------|--------------|--------------|--------------|--------------|--------------|

E|--------------|--------------|
B|--------------|--------------|
G|-%------%-----|-%------%-----|
D|-%------%-----|-%------%-----|
A|--------------|--------------|
E|--------------|--------------|
Iron Maiden - Only the Good Die Young
Iron Maiden - Only the Good Die Young.gp3