Iron Maiden - Out Of The Silent Planet (2)

Iron Maiden



Title: Out Of The Silent Planet
Album: Brave New World
Artist: Iron Maiden
Author: Juha Kerän

Track 1: Solo guitar
E|-12----------10-----------------------10------|-------------10-----------------------10------|
B|------------------12----------10----------12--|-----12-----------12----------10----------12--|
G|-----9---9------------9---12------9-----------|-9-------9------------9---12------9-----------|
D|----------------------------------------------|----------------------------------------------|
A|----------------------------------------------|----------------------------------------------|
E|----------------------------------------------|----------------------------------------------|

E|-12----------10-----------------------10------|-------------10-----------------------10------|
B|------------------12----------10----------12--|-----12-----------12----------10----------12--|
G|-----9---9------------9---12------9-----------|-9-------9------------9---12------9-----------|
D|----------------------------------------------|----------------------------------------------|
A|----------------------------------------------|----------------------------------------------|
E|----------------------------------------------|----------------------------------------------|

E|-------------10-----------------------10------|-------------10-----------------------10------|
B|-----12-----------12----------10----------12--|-----12-----------12----------10----------12--|
G|-9-------9------------9---12------9-----------|-9-------9------------9---12------9-----------|
D|----------------------------------------------|----------------------------------------------|
A|----------------------------------------------|----------------------------------------------|
E|----------------------------------------------|----------------------------------------------|

E|-12--10------10-----------------------10------|-------------10-----------------------10------|
B|---------12-------12----------10----------12--|-----12-----------12----------10----------12--|
G|----------------------9---12------9-----------|-9-------9------------9---12------9-----------|
D|----------------------------------------------|----------------------------------------------|
A|----------------------------------------------|----------------------------------------------|
E|----------------------------------------------|----------------------------------------------|

E|-------------10-----------------------10------|-------------10-----------------------10------|
B|-----12-----------12----------10----------12--|-----12-----------12----------10----------12--|
G|-9-------9------------9---12------9-----------|-9-------9------------9---12------9-----------|
D|----------------------------------------------|----------------------------------------------|
A|----------------------------------------------|----------------------------------------------|
E|----------------------------------------------|----------------------------------------------|

E|-------------10-----------------------10------|-------------10-----------------------10------|
B|-----12-----------12----------10----------12--|-----12-----------12----------10----------12--|
G|-9-------9------------9---12------9-----------|-9-------9------------9---12------9-----------|
D|----------------------------------------------|----------------------------------------------|
A|----------------------------------------------|----------------------------------------------|
E|----------------------------------------------|----------------------------------------------|

E|-------------10-----------------------10------|-------------10-----------------------10------|
B|-----12-----------12----------10----------12--|-----12-----------12----------10----------12--|
G|-9-------9------------9---12------9-----------|-9-------9------------9---12------9-----------|
D|----------------------------------------------|----------------------------------------------|
A|----------------------------------------------|----------------------------------------------|
E|----------------------------------------------|----------------------------------------------|

E|-------------10-----------------------10------|-------------10-----------------------10------|
B|-----12-----------12----------10----------12--|-----12-----------12----------10----------12--|
G|-9-------9------------9---12------9-----------|-9-------9------------9---12------9-----------|
D|----------------------------------------------|----------------------------------------------|
A|----------------------------------------------|----------------------------------------------|
E|----------------------------------------------|----------------------------------------------|

E|--------|---------|---------|---------|---------|---------|---------|---------|---------|
B|-12-----|---------|---------|---------|---------|---------|---------|---------|---------|
G|--------|-%-------|-%-------|-%-------|-%-------|-%-------|-%-------|-%-------|-%-------|
D|--------|-%-------|-%-------|-%-------|-%-------|-%-------|-%-------|-%-------|-%-------|
A|--------|---------|---------|---------|---------|---------|---------|---------|---------|
E|--------|---------|---------|---------|---------|---------|---------|---------|---------|

E|---------------------------------|------------------------|---------------------------------|
B|-10---10--------10----12----12---|-10---------------------|-10---10--------10---------------|
G|-----------12--------------------|------12----12-----12---|-----------12---------12----12---|
D|---------------------------------|------------------------|---------------------------------|
A|---------------------------------|------------------------|---------------------------------|
E|---------------------------------|------------------------|---------------------------------|

E|---------------------------------|---------------------------------|------------------------|
B|-10--------12----10--------------|-10---10--------10----12----12---|-10---------------------|
G|------12--------------12---9-----|-----------12--------------------|------12----12-----12---|
D|---------------------------------|---------------------------------|------------------------|
A|---------------------------------|---------------------------------|------------------------|
E|---------------------------------|---------------------------------|------------------------|

E|---------------------------------|---------------------------------|--------|-----------------------------------------------------------|
B|-10---10--------10---------------|-10--------12----10--------------|--------|-----------------------------------------------------------|
G|-----------12---------12----12---|------12--------------12---9-----|-9------|---------------------%---%------------------------%---%----|
D|---------------------------------|---------------------------------|--------|-2---2---2---2---2---%---%----2---2---2---2---2---%---%----|
A|---------------------------------|---------------------------------|--------|-----------------------------------------------------------|
E|---------------------------------|---------------------------------|--------|-----------------------------------------------------------|

E|-----------------------------------------------------------|-----------------------------------------------------------|
B|-----------------------------------------------------------|-----------------------------------------------------------|
G|---------------------%---%------------------------%---%----|---------------------%---%------------------------%---%----|
D|-2---2---2---2---2---%---%----2---2---2---2---2---%---%----|-2---2---2---2---2---%---%----2---2---2---2---2---%---%----|
A|-----------------------------------------------------------|-----------------------------------------------------------|
E|-----------------------------------------------------------|-----------------------------------------------------------|

E|-----------------------------------------------------------|---------|---------|---------|
B|-----------------------------------------------------------|---------|-7-------|---------|
G|---------------------%---%------------------------%---%----|---------|-9-------|-5-------|
D|-2---2---2---2---2---%---%----2---2---2---2---2---%---%----|-9-------|-9-------|-5-------|
A|-----------------------------------------------------------|-7-------|-7-------|-3-------|
E|-----------------------------------------------------------|-0-------|-0-------|---------|

E|----------------------------|---------|---------|---------|----------------------------|
B|----------------------------|---------|-7-------|---------|----------------------------|
G|-7------7-------------------|---------|-9-------|-5-------|----------------------------|
D|-7------7---------5----4----|-9-------|-9-------|-5-------|-7------7---------5----4----|
A|-5------5----5--------------|-7-------|-7-------|-3-------|-7------7----5--------------|
E|----------------------------|-0-------|-0-------|---------|-5------5-------------------|

E|---------|---------|---------|----------------------------|---------|---------|---------|
B|---------|-7-------|---------|----------------------------|---------|-7-------|---------|
G|---------|-9-------|-5-------|-7------7-------------------|---------|-9-------|-5-------|
D|-9-------|-9-------|-5-------|-7------7---------5----4----|-9-------|-9-------|-5-------|
A|-7-------|-7-------|-3-------|-5------5----5--------------|-7-------|-7-------|-3-------|
E|-0-------|-0-------|---------|----------------------------|-0-------|-0-------|---------|

E|---------|---------|---------|---------|---------------------|---------|---------|
B|---------|---------|---------|---------|---------------------|---------|---------|
G|-7-------|-%-------|-%-------|-%-------|---------------------|---------|-%-------|
D|-7-------|-%-------|-%-------|-%-------|-7------7------5-----|-7-------|-%-------|
A|-5-------|---------|---------|---------|---------------------|---------|---------|
E|---------|---------|---------|---------|---------------------|---------|---------|

E|---------|---------|---------|---------|---------|---------|---------|---------|---------|
B|---------|---------|---------|---------|---------|---------|---------|---------|---------|
G|-%-------|-%-------|-%-------|-%-------|-%-------|-%-------|-%-------|-%-------|-%-------|
D|-%-------|-%-------|-%-------|-%-------|-%-------|-%-------|-%-------|-%-------|-%-------|
A|---------|---------|---------|---------|---------|---------|---------|---------|---------|
E|---------|---------|---------|---------|---------|---------|---------|---------|---------|

E|---------|---------|---------|---------|---------|---------|---------|---------|---------|
B|---------|---------|---------|---------|---------|---------|---------|---------|---------|
G|-%-------|-%-------|-%-------|-%-------|-%-------|-%-------|-%-------|-%-------|-%-------|
D|-%-------|-%-------|-%-------|-%-------|-%-------|-%-------|-%-------|-%-------|-%-------|
A|---------|---------|---------|---------|---------|---------|---------|---------|---------|
E|---------|---------|---------|---------|---------|---------|---------|---------|---------|

E|---------|---------|---------|----------------------------|---------|---------|---------|
B|---------|-7-------|---------|----------------------------|---------|-7-------|---------|
G|---------|-9-------|-5-------|-7------7-------------------|---------|-9-------|-5-------|
D|-9-------|-9-------|-5-------|-7------7---------5----4----|-9-------|-9-------|-5-------|
A|-7-------|-7-------|-3-------|-5------5----5--------------|-7-------|-7-------|-3-------|
E|-0-------|-0-------|---------|----------------------------|-0-------|-0-------|---------|

E|----------------------------|---------|---------|---------|----------------------------|
B|----------------------------|---------|-7-------|---------|----------------------------|
G|----------------------------|---------|-9-------|-5-------|-7------7-------------------|
D|-7------7---------5----4----|-9-------|-9-------|-5-------|-7------7---------5----4----|
A|-7------7----5--------------|-7-------|-7-------|-3-------|-5------5----5--------------|
E|-5------5-------------------|-0-------|-0-------|---------|----------------------------|

E|---------|---------|---------|---------|---------|---------|---------|---------------------|
B|---------|-7-------|---------|---------|---------|---------|---------|---------------------|
G|---------|-9-------|-5-------|-7-------|---------|-5-------|-9-------|---------------------|
D|-9-------|-9-------|-5-------|-7-------|-7-------|---------|---------|-7------7------5-----|
A|-7-------|-7-------|-3-------|-5-------|---------|---------|---------|---------------------|
E|-0-------|-0-------|---------|---------|---------|---------|---------|---------------------|

E|---------|---------|---------|---------|-----------------------------------------------------|
B|---------|---------|---------|---------|-----------------------------------------------------|
G|---------|---------|---------|---------|-9----9---9---9----9---9---9----9---9---9----9---9---|
D|---------|---------|---------|---------|-----------------------------------------------------|
A|-0-------|-3-------|-5-------|-5-------|-----------------------------------------------------|
E|-0-------|-3-------|-5-------|-5-------|-----------------------------------------------------|

E|-----------------------------------------------------|-----------------------------------------------------|
B|-----------------------------------------------------|-----------------------------------------------------|
G|-5----5---5---5----5---5---5----5---5---5----5---5---|-----------------------------------------------------|
D|-----------------------------------------------------|-5----5---5---5----5---5---5----5---5---5----5---5---|
A|-----------------------------------------------------|-----------------------------------------------------|
E|-----------------------------------------------------|-----------------------------------------------------|

E|-----------------------------------------------------|-----------------------------------------------------|
B|-----------------------------------------------------|-----------------------------------------------------|
G|-7----7---7---7----7---7---7----7---7---7----7---7---|-9----9---9---9----9---9---9----9---9---9----9---9---|
D|-----------------------------------------------------|-----------------------------------------------------|
A|-----------------------------------------------------|-----------------------------------------------------|
E|-----------------------------------------------------|-----------------------------------------------------|

E|-----------------------------------------------------|-----------------------------------------------------|
B|-----------------------------------------------------|-----------------------------------------------------|
G|-5----5---5---5----5---5---5----5---5---5----5---5---|-----------------------------------------------------|
D|-----------------------------------------------------|-5----5---5---5----5---5---5----5---5---5----5---5---|
A|-----------------------------------------------------|-----------------------------------------------------|
E|-----------------------------------------------------|-----------------------------------------------------|

E|-----------------------------------------------------|-----------------------------------------------------|
B|-----------------------------------------------------|-----------------------------------------------------|
G|-7----7---7---7----7---7---7----7---7---7----7---7---|-9----9---9---9----9---9---9----9---9---9----9---9---|
D|-----------------------------------------------------|-----------------------------------------------------|
A|-----------------------------------------------------|-----------------------------------------------------|
E|-----------------------------------------------------|-----------------------------------------------------|

E|-----------------------------------------------------|-----------------------------------------------------|
B|-----------------------------------------------------|-----------------------------------------------------|
G|-5----5---5---5----5---5---5----5---5---5----5---5---|-----------------------------------------------------|
D|-----------------------------------------------------|-5----5---5---5----5---5---5----5---5---5----5---5---|
A|-----------------------------------------------------|-----------------------------------------------------|
E|-----------------------------------------------------|-----------------------------------------------------|

E|-----------------------------------------------------|-----------------------------------------------------|
B|-----------------------------------------------------|-----------------------------------------------------|
G|-7----7---7---7----7---7---7----7---7---7----7---7---|-9----9---9---9----9---9---9----9---9---9----9---9---|
D|-----------------------------------------------------|-----------------------------------------------------|
A|-----------------------------------------------------|-----------------------------------------------------|
E|-----------------------------------------------------|-----------------------------------------------------|

E|-----------------------------------------------------|-----------------------------------------------------|
B|-----------------------------------------------------|-----------------------------------------------------|
G|-5----5---5---5----5---5---5----5---5---5----5---5---|-----------------------------------------------------|
D|-----------------------------------------------------|-5----5---5---5----5---5---5----5---5---5----5---5---|
A|-----------------------------------------------------|-----------------------------------------------------|
E|-----------------------------------------------------|-----------------------------------------------------|

E|-----------------------------------------------------|-----------------------------|
B|-----------------------------------------------------|-10---------10----12----10---|
G|-7----7---7---7----7---7---7----7---7---7----7---7---|-------12--------------------|
D|-----------------------------------------------------|-----------------------------|
A|-----------------------------------------------------|-----------------------------|
E|-----------------------------------------------------|-----------------------------|

E|------------------------|-----------------------------|---------------------------------|
B|-10---------------------|-10---------10----------10---|-10--------10----10--------------|
G|------12-----12----12---|-------12---------12---------|------12--------------12---9-----|
D|------------------------|-----------------------------|---------------------------------|
A|------------------------|-----------------------------|---------------------------------|
E|------------------------|-----------------------------|---------------------------------|

E|-----------------------------|------------------------|-----------------------------|
B|-10---------10----12----10---|-10---------------------|-10---------10----------10---|
G|-------12--------------------|------12-----12----12---|-------12---------12---------|
D|-----------------------------|------------------------|-----------------------------|
A|-----------------------------|------------------------|-----------------------------|
E|-----------------------------|------------------------|-----------------------------|

E|---------------------------------|-----------------------------|------------------------|
B|-10--------10----10--------------|-10---------10----12----10---|-10---------------------|
G|------12--------------12---9-----|-------12--------------------|------12-----12----12---|
D|---------------------------------|-----------------------------|------------------------|
A|---------------------------------|-----------------------------|------------------------|
E|---------------------------------|-----------------------------|------------------------|

E|-----------------------------|---------------------------------|-----------------------------|
B|-10---------10----------10---|-10--------10----10--------------|-10---------10----12----10---|
G|-------12---------12---------|------12--------------12---9-----|-------12--------------------|
D|-----------------------------|---------------------------------|-----------------------------|
A|-----------------------------|---------------------------------|-----------------------------|
E|-----------------------------|---------------------------------|-----------------------------|

E|------------------------|-----------------------------|---------------------------------|
B|-10---------------------|-10---------10----------10---|-10--------10----10--------------|
G|------12-----12----12---|-------12---------12---------|------12--------------12---9-----|
D|------------------------|-----------------------------|---------------------------------|
A|------------------------|-----------------------------|---------------------------------|
E|------------------------|-----------------------------|---------------------------------|

E|---------|---------|---------|---------|---------|---------|---------|---------|-12------|
B|---------|---------|---------|---------|---------|---------|---------|---------|---------|
G|-%-------|-%-------|-%-------|-%-------|-%-------|-%-------|-%-------|-%-------|---------|
D|-%-------|-%-------|-%-------|-%-------|-%-------|-%-------|-%-------|-%-------|---------|
A|---------|---------|---------|---------|---------|---------|---------|---------|---------|
E|---------|---------|---------|---------|---------|---------|---------|---------|---------|

E|-10------|-2------2-----------|---------|-10-----10--12--12--10--12--10------12--10--12------12--10------12--|
B|-10------|-0------0-----------|---------|--------------------------------12--------------12----------12------|
G|---------|---------------%----|-%-------|--------------------------------------------------------------------|
D|---------|---------------%----|-%-------|--------------------------------------------------------------------|
A|---------|--------------------|---------|--------------------------------------------------------------------|
E|---------|--------------------|---------|--------------------------------------------------------------------|

E|-10------12--10----------12----10-------------------------------|-2-------------|
B|-----12----------12--10------------12--10--12--10---------------|-0-------------|
G|---------------------------------------------------12--9---12---|--------%------|
D|----------------------------------------------------------------|--------%------|
A|----------------------------------------------------------------|---------------|
E|----------------------------------------------------------------|---------------|

E|---------------------------|-----------------------------------------------|------------------------|
B|---------------------------|-----------------------------------------------|------------------------|
G|-%------%----------%-------|-----------------------------------------------|------------------12----|
D|-%------%-----12---%--12---|-12----12---------------------------------12---|-12----12-----12--------|
A|---------------------------|-----------14--12--10--------------------------|------------------------|
E|---------------------------|-----------------------12--10--8-----8---------|------------------------|

E|------------------------|-------------------------------------|-----------------------------------------------------|
B|------------------------|--------------------------8----8-----|-8-------------------15--------------15----------15--|
G|-12-----12----12--------|-9----12---9---------9---------------|-------14----14--16------16--14--16------14--16------|
D|-------------------12---|----------------9--------------------|-----------------------------------------------------|
A|------------------------|-------------------------------------|-----------------------------------------------------|
E|------------------------|-------------------------------------|-----------------------------------------------------|

E|---------------------------------------------------------------------------------|
B|---------15----------15----------------------15----------------------15----------|
G|-14--16------14--16------14--16--16--14--16------14--16--16--14--16------14--16--|
D|---------------------------------------------------------------------------------|
A|---------------------------------------------------------------------------------|
E|---------------------------------------------------------------------------------|

E|-15-----15-----15----|-15------|--------------------------|--------------------|---------|
B|--------12-----------|---------|--------------------------|--------------------|---------|
G|---------------------|---------|--------------------------|-12-----14-----12---|---------|
D|---------------------|---------|--------------12----14----|--------------------|-16------|
A|---------------------|---------|-15-----15----------------|--------------------|---------|
E|---------------------|---------|--------------------------|--------------------|---------|

E|---------------------|--------------------------|--------------------|---------|---------------------|
B|---------------------|--------------------------|--------------------|---------|---------------------|
G|-14-----14-----12----|--------------------------|-12-----14-----12---|---------|-12------------------|
D|---------------------|--------------12----14----|--------------------|-16------|--------16-----12----|
A|---------------------|-15-----15----------------|--------------------|---------|---------------------|
E|---------------------|--------------------------|--------------------|---------|---------------------|

E|--------------------------|--------------------|---------|---------------------|--------------------------|
B|--------------------------|--------------------|---------|-15-----15-----------|--------------------------|
G|--------------------------|-12-----14-----12---|---------|---------------16----|--------------------------|
D|--------------12----14----|--------------------|-16------|---------------------|--------------12----14----|
A|-15-----15----------------|--------------------|---------|---------------------|-15-----15----------------|
E|--------------------------|--------------------|---------|---------------------|--------------------------|

E|--------------------|---------|---------------|-----------------------------------------------------|
B|--------------------|---------|---------------|-----------------------------------------------------|
G|-12-----14-----12---|---------|-12-----14-----|-9----9---9---9----9---9---9----9---9---9----9---9---|
D|--------------------|-16------|---------------|-----------------------------------------------------|
A|--------------------|---------|---------------|-----------------------------------------------------|
E|--------------------|---------|---------------|-----------------------------------------------------|

E|-----------------------------------------------------|-----------------------------------------------------|
B|-----------------------------------------------------|-----------------------------------------------------|
G|-5----5---5---5----5---5---5----5---5---5----5---5---|-----------------------------------------------------|
D|-----------------------------------------------------|-5----5---5---5----5---5---5----5---5---5----5---5---|
A|-----------------------------------------------------|-----------------------------------------------------|
E|-----------------------------------------------------|-----------------------------------------------------|

E|-----------------------------------------------------|-----------------------------------------------------|
B|-----------------------------------------------------|-----------------------------------------------------|
G|-7----7---7---7----7---7---7----7---7---7----7---7---|-9----9---9---9----9---9---9----9---9---9----9---9---|
D|-----------------------------------------------------|-----------------------------------------------------|
A|-----------------------------------------------------|-----------------------------------------------------|
E|-----------------------------------------------------|-----------------------------------------------------|

E|-----------------------------------------------------|-----------------------------------------------------|
B|-----------------------------------------------------|-----------------------------------------------------|
G|-5----5---5---5----5---5---5----5---5---5----5---5---|-----------------------------------------------------|
D|-----------------------------------------------------|-5----5---5---5----5---5---5----5---5---5----5---5---|
A|-----------------------------------------------------|-----------------------------------------------------|
E|-----------------------------------------------------|-----------------------------------------------------|

E|-----------------------------------------------------|-----------------------------------------------------|
B|-----------------------------------------------------|-----------------------------------------------------|
G|-7----7---7---7----7---7---7----7---7---7----7---7---|-9----9---9---9----9---9---9----9---9---9----9---9---|
D|-----------------------------------------------------|-----------------------------------------------------|
A|-----------------------------------------------------|-----------------------------------------------------|
E|-----------------------------------------------------|-----------------------------------------------------|

E|-----------------------------------------------------|-----------------------------------------------------|
B|-----------------------------------------------------|-----------------------------------------------------|
G|-5----5---5---5----5---5---5----5---5---5----5---5---|-----------------------------------------------------|
D|-----------------------------------------------------|-5----5---5---5----5---5---5----5---5---5----5---5---|
A|-----------------------------------------------------|-----------------------------------------------------|
E|-----------------------------------------------------|-----------------------------------------------------|

E|-----------------------------------------------------|-----------------------------------------------------|
B|-----------------------------------------------------|-----------------------------------------------------|
G|-7----7---7---7----7---7---7----7---7---7----7---7---|-9----9---9---9----9---9---9----9---9---9----9---9---|
D|-----------------------------------------------------|-----------------------------------------------------|
A|-----------------------------------------------------|-----------------------------------------------------|
E|-----------------------------------------------------|-----------------------------------------------------|

E|-----------------------------------------------------|-----------------------------------------------------|
B|-----------------------------------------------------|-----------------------------------------------------|
G|-5----5---5---5----5---5---5----5---5---5----5---5---|-----------------------------------------------------|
D|-----------------------------------------------------|-5----5---5---5----5---5---5----5---5---5----5---5---|
A|-----------------------------------------------------|-----------------------------------------------------|
E|-----------------------------------------------------|-----------------------------------------------------|

E|-----------------------------------------------------|-----------------------------|
B|-----------------------------------------------------|-10---------10----12----10---|
G|-7----7---7---7----7---7---7----7---7---7----7---7---|-------12--------------------|
D|-----------------------------------------------------|-----------------------------|
A|-----------------------------------------------------|-----------------------------|
E|-----------------------------------------------------|-----------------------------|

E|------------------------|-----------------------------|---------------------------------|
B|-10---------------------|-10---------10----------10---|-10--------10----10--------------|
G|------12-----12----12---|-------12---------12---------|------12--------------12---9-----|
D|------------------------|-----------------------------|---------------------------------|
A|------------------------|-----------------------------|---------------------------------|
E|------------------------|-----------------------------|---------------------------------|

E|-----------------------------|------------------------|-----------------------------|
B|-10---------10----12----10---|-10---------------------|-10---------10----------10---|
G|-------12--------------------|------12-----12----12---|-------12---------12---------|
D|-----------------------------|------------------------|-----------------------------|
A|-----------------------------|------------------------|-----------------------------|
E|-----------------------------|------------------------|-----------------------------|

E|---------------------------------|-----------------------------|------------------------|
B|-10--------10----10--------------|-10---------10----12----10---|-10---------------------|
G|------12--------------12---9-----|-------12--------------------|------12-----12----12---|
D|---------------------------------|-----------------------------|------------------------|
A|---------------------------------|-----------------------------|------------------------|
E|---------------------------------|-----------------------------|------------------------|

E|-----------------------------|---------------------------------|-----------------------------|
B|-10---------10----------10---|-10--------10----10--------------|-10---------10----12----10---|
G|-------12---------12---------|------12--------------12---9-----|-------12--------------------|
D|-----------------------------|---------------------------------|-----------------------------|
A|-----------------------------|---------------------------------|-----------------------------|
E|-----------------------------|---------------------------------|-----------------------------|

E|------------------------|-----------------------------|---------------------------------|
B|-10---------------------|-10---------10----------10---|-10--------10----10--------------|
G|------12-----12----12---|-------12---------12---------|------12--------------12---9-----|
D|------------------------|-----------------------------|---------------------------------|
A|------------------------|-----------------------------|---------------------------------|
E|------------------------|-----------------------------|---------------------------------|

E|-----------------------------|------------------------|-----------------------------|
B|-10---------10----12----12---|-10---------------------|-10---------10---------------|
G|-------12--------------------|------12-----12----12---|-------12---------12----12---|
D|-----------------------------|------------------------|-----------------------------|
A|-----------------------------|------------------------|-----------------------------|
E|-----------------------------|------------------------|-----------------------------|

E|---------------------------------|-----------------------------|------------------------|
B|-10--------10----10--------------|-10---------10----12----12---|-10---------------------|
G|------12--------------12---9-----|-------12--------------------|------12-----12----12---|
D|---------------------------------|-----------------------------|------------------------|
A|---------------------------------|-----------------------------|------------------------|
E|---------------------------------|-----------------------------|------------------------|

E|-----------------------------|---------------------------------|-----------------------------|
B|-10---------10---------------|-10--------10----10--------------|-10---------10----12----12---|
G|-------12---------12----12---|------12--------------12---9-----|-------12--------------------|
D|-----------------------------|---------------------------------|-----------------------------|
A|-----------------------------|---------------------------------|-----------------------------|
E|-----------------------------|---------------------------------|-----------------------------|

E|------------------------|-----------------------------|---------------------------------|
B|-10---------------------|-10---------10---------------|-10--------10----10--------------|
G|------12-----12----12---|-------12---------12----12---|------12--------------12---9-----|
D|------------------------|-----------------------------|---------------------------------|
A|------------------------|-----------------------------|---------------------------------|
E|------------------------|-----------------------------|---------------------------------|

E|-----------------------------|------------------------|-----------------------------|
B|-10---------10----12----12---|-10---------------------|-10---------10---------------|
G|-------12--------------------|------12-----12----12---|-------12---------12----12---|
D|-----------------------------|------------------------|-----------------------------|
A|-----------------------------|------------------------|-----------------------------|
E|-----------------------------|------------------------|-----------------------------|

E|---------------------------------|--------|-12----------10-----------------------10------|
B|-10--------10----10--------------|--------|------------------12----------10----------12--|
G|------12--------------12---9-----|-9------|-----9---9------------9---12------9-----------|
D|---------------------------------|--------|----------------------------------------------|
A|---------------------------------|--------|----------------------------------------------|
E|---------------------------------|--------|----------------------------------------------|

E|-------------10-----------------------10------|-12----------10-----------------------10------|
B|-----12-----------12----------10----------12--|------------------12----------10----------12--|
G|-9-------9------------9---12------9-----------|-----9---9------------9---12------9-----------|
D|----------------------------------------------|----------------------------------------------|
A|----------------------------------------------|----------------------------------------------|
E|----------------------------------------------|----------------------------------------------|

E|-12----------10-----------------------10------|--------------|--------------|
B|------------------12----------10----------12--|-12----12-----|-12----12-----|
G|-----9---9------------9---12------9-----------|--------------|--------------|
D|----------------------------------------------|--------------|--------------|
A|----------------------------------------------|--------------|--------------|
E|----------------------------------------------|--------------|--------------|
Iron Maiden - Out Of The Silent Planet (2)
Iron Maiden - Out Of The Silent Planet (2).gp3