Iron Maiden - Out of the silent planet solo

Iron Maiden - Out of the silent planet solo

Iron Maiden



Title: Out of the silent planet solo
Album: Brave new world
Artist: Iron Maiden
Author: Janick Gers, Steve Harris & Bruce Dickinson

Track 1: Dave
E|--------------------------------------------------------------|--------------------------------------------------------------|
B|--------------------------------------------------------------|--------------------------------------------------------------|
G|--------------------------------------------------------------|--------------------------------------------------------------|
D|---------------------------------------------------------5----|---------------------------------------------------------5----|
A|-7---X---X---5---X---X---7---X---X---5---X---X---7---X--------|-7---X---X---5---X---X---7---X---X---5---X---X---7---X---3----|
E|--------------------------------------------------------------|--------------------------------------------------------------|

E|--------------------------------------------------------------|--------------------------------------------------------------|
B|--------------------------------------------------------------|--------------------------------------------------------------|
G|--------------------------------------------------------------|--------------------------------------------------------------|
D|---------------------------------------------------------5----|---------------------------------------------------------5----|
A|-7---X---X---5---X---X---7---X---X---5---X---X---7---X--------|-7---X---X---5---X---X---7---X---X---5---X---X---7---X---3----|
E|--------------------------------------------------------------|--------------------------------------------------------------|

E|--------------------------------------------------------------|--------------------------------------------------------------|
B|--------------------------------------------------------------|--------------------------------------------------------------|
G|--------------------------------------------------------------|--------------------------------------------------------------|
D|---------------------------------------------------------5----|---------------------------------------------------------5----|
A|-7---X---X---5---X---X---7---X---X---5---X---X---7---X--------|-7---X---X---5---X---X---7---X---X---5---X---X---7---X---3----|
E|--------------------------------------------------------------|--------------------------------------------------------------|

E|--------------------------------------------------------------|--------------------------------------------------------------|
B|--------------------------------------------------------------|--------------------------------------------------------------|
G|--------------------------------------------------------------|--------------------------------------------------------------|
D|---------------------------------------------------------5----|---------------------------------------------------------5----|
A|-7---X---X---5---X---X---7---X---X---5---X---X---7---X--------|-7---X---X---5---X---X---7---X---X---5---X---X---7---X---3----|
E|--------------------------------------------------------------|--------------------------------------------------------------|

E|--------------------------------------------------------------|--------------------------------------------------------------|
B|--------------------------------------------------------------|--------------------------------------------------------------|
G|--------------------------------------------------------------|--------------------------------------------------------------|
D|---------------------------------------------------------5----|---------------------------------------------------------5----|
A|-7---X---X---5---X---X---7---X---X---5---X---X---7---X--------|-7---X---X---5---X---X---7---X---X---5---X---X---7---X---3----|
E|--------------------------------------------------------------|--------------------------------------------------------------|

E|--------------------------------------------------------------|--------------------------------------------------------------|
B|--------------------------------------------------------------|--------------------------------------------------------------|
G|--------------------------------------------------------------|--------------------------------------------------------------|
D|---------------------------------------------------------5----|---------------------------------------------------------5----|
A|-7---X---X---5---X---X---7---X---X---5---X---X---7---X--------|-7---X---X---5---X---X---7---X---X---5---X---X---7---X---3----|
E|--------------------------------------------------------------|--------------------------------------------------------------|

E|--------------------------------------------------------------|--------------------------------------------------------------|
B|--------------------------------------------------------------|--------------------------------------------------------------|
G|--------------------------------------------------------------|--------------------------------------------------------------|
D|---------------------------------------------------------5----|---------------------------------------------------------5----|
A|-7---X---X---5---X---X---7---X---X---5---X---X---7---X--------|-7---X---X---5---X---X---7---X---X---5---X---X---7---X---3----|
E|--------------------------------------------------------------|--------------------------------------------------------------|

E|--------------------------------------------------------------|--------------------------------------------------------------|
B|--------------------------------------------------------------|--------------------------------------------------------------|
G|--------------------------------------------------------------|--------------------------------------------------------------|
D|---------------------------------------------------------5----|---------------------------------------------------------5----|
A|-7---X---X---5---X---X---7---X---X---5---X---X---7---X--------|-7---X---X---5---X---X---7---X---X---5---X---X---7---X---3----|
E|--------------------------------------------------------------|--------------------------------------------------------------|

E|--------------------------------------------------------------|--------------------------------------------------------------|
B|--------------------------------------------------------------|--------------------------------------------------------------|
G|--------------------------------------------------------------|--------------------------------------------------------------|
D|---------------------------------------------------------5----|---------------------------------------------------------5----|
A|-7---X---X---5---X---X---7---X---X---5---X---X---7---X--------|-7---X---X---5---X---X---7---X---X---5---X---X---7---X---3----|
E|--------------------------------------------------------------|--------------------------------------------------------------|

E|--------------------------------------------------------------|--------------------------------------------------------------|
B|--------------------------------------------------------------|--------------------------------------------------------------|
G|--------------------------------------------------------------|--------------------------------------------------------------|
D|---------------------------------------------------------5----|---------------------------------------------------------5----|
A|-7---X---X---5---X---X---7---X---X---5---X---X---7---X--------|-7---X---X---5---X---X---7---X---X---5---X---X---7---X---3----|
E|--------------------------------------------------------------|--------------------------------------------------------------|

E|--------------------------------------------------------------|
B|--------------------------------------------------------------|
G|--------------------------------------------------------------|
D|---------------------------------------------------------5----|
A|-7---X---X---5---X---X---7---X---X---5---X---X---7---X--------|
E|--------------------------------------------------------------|
Iron Maiden - Out of the silent planet solo
Iron Maiden - Out of the silent planet solo.gp3