Iron Maiden - Paschendale

Iron Maiden



Title: Paschendale
Album: Dance of Death
Artist: Iron Maiden
Author: 

Track 1: Dist. Guitar 1
E|---------|---------|---------|---------|-0----10---12---0----8----12---0----7----|
B|---------|---------|---------|---------|-----------------------------------------|
G|-%-------|-%-------|-%-------|-%-------|-----------------------------------------|
D|-%-------|-%-------|-%-------|-%-------|-----------------------------------------|
A|---------|---------|---------|---------|-----------------------------------------|
E|---------|---------|---------|---------|-----------------------------------------|

E|-12---0----5----12---0----7----12----|-0----7----12---0----5----12---0----3----|-12---0----2----12---0-----12----|
B|-------------------------------------|-----------------------------------------|---------------------------------|
G|-------------------------------------|-----------------------------------------|---------------------------------|
D|-------------------------------------|-----------------------------------------|---------------------------------|
A|-------------------------------------|-----------------------------------------|---------------------------------|
E|-------------------------------------|-----------------------------------------|---------------------------------|

E|-0----10---12---0----8----12---0----7----|-12---0----5----12---0----7----12----|-0----7----12---0----5----12---0----3----|
B|-----------------------------------------|-------------------------------------|-----------------------------------------|
G|-----------------------------------------|-------------------------------------|-----------------------------------------|
D|-----------------------------------------|-------------------------------------|-----------------------------------------|
A|-----------------------------------------|-------------------------------------|-----------------------------------------|
E|-----------------------------------------|-------------------------------------|-----------------------------------------|

E|-12---0----2----12---0-----12----|-0----10---12---0----8----12---0----7----|-12---0----5----12---0----7----12----|
B|---------------------------------|-----------------------------------------|-------------------------------------|
G|---------------------------------|-----------------------------------------|-------------------------------------|
D|---------------------------------|-----------------------------------------|-------------------------------------|
A|---------------------------------|-----------------------------------------|-------------------------------------|
E|---------------------------------|-----------------------------------------|-------------------------------------|

E|-0----7----12---0----5----12---0----3----|-12---0----2----12---0-----12----|-0----10---12---0----8----12---0----7----|
B|-----------------------------------------|---------------------------------|-----------------------------------------|
G|-----------------------------------------|---------------------------------|-----------------------------------------|
D|-----------------------------------------|---------------------------------|-----------------------------------------|
A|-----------------------------------------|---------------------------------|-----------------------------------------|
E|-----------------------------------------|---------------------------------|-----------------------------------------|

E|-12---0----5----12---0----7----12----|-0----7----12---0----5----12---0----3----|-12---0----2----12---0-------------|
B|-------------------------------------|-----------------------------------------|-----------------------------------|
G|-------------------------------------|-----------------------------------------|-----------------------------%-----|
D|-------------------------------------|-----------------------------------------|-----------------------------%-----|
A|-------------------------------------|-----------------------------------------|-----------------------------------|
E|-------------------------------------|-----------------------------------------|-----------------------------------|

E|-----------------------------------------|-------------------|-----------------------------------------|
B|-----------------------------------------|-------------------|-----------------------------------------|
G|-9----9----X----7----7----X----5----5----|-X----4----4-------|-5----5----X----4----4----X----2----2----|
D|-9----9----X----7----7----X----5----5----|-X----4----4-------|-5----5----X----4----4----X----2----2----|
A|-7----7----X----5----5----X----3----3----|-X----2----2-------|-3----3----X----2----2----X----0----0----|
E|-----------------------------------------|-------------------|-----------------------------------------|

E|-------------------|-----------------------------------------|-------------------|
B|-------------------|-----------------------------------------|-------------------|
G|-------------------|-9----9----X----7----7----X----5----5----|-X----4----4-------|
D|-X----2----2-------|-9----9----X----7----7----X----5----5----|-X----4----4-------|
A|-X----2----2-------|-7----7----X----5----5----X----3----3----|-X----2----2-------|
E|-X----0----0-------|-----------------------------------------|-------------------|

E|-----------------------------------------|-------------------|---------|---------|
B|-----------------------------------------|-------------------|---------|---------|
G|-5----5----X----7----7----X----9----9----|-------------------|---------|---------|
D|-5----5----X----7----7----X----9----9----|-X----2----2-------|-2-------|-2-------|
A|-3----3----X----5----5----X----7----7----|-X----2----2-------|-2-------|-2-------|
E|-----------------------------------------|-X----0----0-------|-0-------|-0-------|

E|---------|---------|-0----10---12---0----8----12---0----7----|-12---0----5----12---0----7----12----|
B|---------|---------|-----------------------------------------|-------------------------------------|
G|-%-------|-%-------|-----------------------------------------|-------------------------------------|
D|-%-------|-%-------|-----------------------------------------|-------------------------------------|
A|---------|---------|-----------------------------------------|-------------------------------------|
E|---------|---------|-----------------------------------------|-------------------------------------|

E|-0----7----12---0----5----12---0----3----|-12---0----2----12---0-----12----|-0----10---12---0----8----12---0----7----|
B|-----------------------------------------|---------------------------------|-----------------------------------------|
G|-----------------------------------------|---------------------------------|-----------------------------------------|
D|-----------------------------------------|---------------------------------|-----------------------------------------|
A|-----------------------------------------|---------------------------------|-----------------------------------------|
E|-----------------------------------------|---------------------------------|-----------------------------------------|

E|-12---0----5----12---0----7----12----|-0----7----12---0----5----12---0----3----|-12---0----2----12---0-----12----|
B|-------------------------------------|-----------------------------------------|---------------------------------|
G|-------------------------------------|-----------------------------------------|---------------------------------|
D|-------------------------------------|-----------------------------------------|---------------------------------|
A|-------------------------------------|-----------------------------------------|---------------------------------|
E|-------------------------------------|-----------------------------------------|---------------------------------|

E|-0----10---12---0----8----12---0----7----|-12---0----5----12---0----7----12----|-0----7----12---0----5----12---0----3----|
B|-----------------------------------------|-------------------------------------|-----------------------------------------|
G|-----------------------------------------|-------------------------------------|-----------------------------------------|
D|-----------------------------------------|-------------------------------------|-----------------------------------------|
A|-----------------------------------------|-------------------------------------|-----------------------------------------|
E|-----------------------------------------|-------------------------------------|-----------------------------------------|

E|-12---0----2----12---0-----0-----|-----------------------------------------|-----------------------------------------|
B|---------------------------------|-X----13---13---X----12---12---X----10---|-10---X----8----8----8----8----7----8----|
G|---------------------------------|-X----12---12---X----11---11---X----9----|-9----X----7----7----7----7----6----7----|
D|---------------------------------|-X----10---10---X----9----9----X----7----|-7----X----5----5----5----5----4----5----|
A|---------------------------------|-----------------------------------------|-----------------------------------------|
E|---------------------------------|-----------------------------------------|-----------------------------------------|

E|-----------------------------------------|-----------------------------------------|
B|-X----10---10---X----8----8----X----7----|-7----X----5----5----5----5----3----5----|
G|-X----9----9----X----7----7----X----6----|-6----X----4----4----4----4----2----4----|
D|-X----7----7----X----5----5----X----4----|-4----X----2----2----2----2----0----2----|
A|-----------------------------------------|-----------------------------------------|
E|-----------------------------------------|-----------------------------------------|

E|-----------------------------------------|-----------------------------------------|
B|-X----13---13---X----12---12---X----10---|-10---X----8----8----8----8----7----8----|
G|-X----12---12---X----11---11---X----9----|-9----X----7----7----7----7----6----7----|
D|-X----10---10---X----9----9----X----7----|-7----X----5----5----5----5----4----5----|
A|-----------------------------------------|-----------------------------------------|
E|-----------------------------------------|-----------------------------------------|

E|-----------------------------------------|----------------------------|---------------------------------|
B|-X----10---10---X----8----8----X----7----|-7----X----5----5----5------|---------------------------------|
G|-X----9----9----X----7----7----X----6----|-6----X----4----4----4------|-7----9----9-----9-----7----7----|
D|-X----7----7----X----5----5----X----4----|-4----X----2----2----2------|-7----9----9-----9-----7----7----|
A|-----------------------------------------|----------------------------|-5----7----7-----7-----5----5----|
E|-----------------------------------------|----------------------------|---------------------------------|

E|------------------------|---------------------------------|-----------------------------|
B|------------------------|---------------------------------|-----------------------------|
G|-7----9----9-----9------|-9-----12---12---12----5----5----|-5----7----7-----7-----7-----|
D|-7----9----9-----9------|-9-----12---12---12----5----5----|-5----7----7-----7-----7-----|
A|-5----7----7-----7------|-7-----10---10---10----3----3----|-3----5----5-----5-----5-----|
E|------------------------|---------------------------------|-----------------------------|

E|---------------------------------|------------------------|---------------------------------|
B|---------------------------------|------------------------|---------------------------------|
G|-7----9----9-----9-----7----7----|-7----9----9-----9------|-9-----12---12---12----5----5----|
D|-7----9----9-----9-----7----7----|-7----9----9-----9------|-9-----12---12---12----5----5----|
A|-5----7----7-----7-----5----5----|-5----7----7-----7------|-7-----10---10---10----3----3----|
E|---------------------------------|------------------------|---------------------------------|

E|-----------------------------|---------------------------------|------------------------|
B|-----------------------------|---------------------------------|------------------------|
G|-5----7----7-----7-----7-----|-7----9----9-----9-----7----7----|-7----9----9-----9------|
D|-5----7----7-----7-----7-----|-7----9----9-----9-----7----7----|-7----9----9-----9------|
A|-3----5----5-----5-----5-----|-5----7----7-----7-----5----5----|-5----7----7-----7------|
E|-----------------------------|---------------------------------|------------------------|

E|---------------------------------|-----------------------------|---------------------------------|
B|---------------------------------|-----------------------------|---------------------------------|
G|-9-----12---12---12----5----5----|-5----7----7-----7-----7-----|-7----9----9-----9-----7----7----|
D|-9-----12---12---12----5----5----|-5----7----7-----7-----7-----|-7----9----9-----9-----7----7----|
A|-7-----10---10---10----3----3----|-3----5----5-----5-----5-----|-5----7----7-----7-----5----5----|
E|---------------------------------|-----------------------------|---------------------------------|

E|------------------------|---------------------------------|-----------------------------|
B|------------------------|---------------------------------|-----------------------------|
G|-7----9----9-----9------|-9-----12---12---12----5----5----|-5----7----7-----7-----7-----|
D|-7----9----9-----9------|-9-----12---12---12----5----5----|-5----7----7-----7-----7-----|
A|-5----7----7-----7------|-7-----10---10---10----3----3----|-3----5----5-----5-----5-----|
E|------------------------|---------------------------------|-----------------------------|

E|---------|---------------------|---------|---------------------|---------|---------------------|
B|---------|---------------------|---------|---------------------|---------|---------------------|
G|---------|-------5-------------|---------|--------------7------|---------|-------5-------------|
D|-2-------|-2-----5------5------|-2-------|-2-----5------7------|-2-------|-2-----5------5------|
A|-2-------|-2-----3------5------|-2-------|-2-----5------5------|-2-------|-2-----3------5------|
E|-0-------|-0------------3------|-0-------|-0-----3-------------|-0-------|-0------------3------|

E|---------|---------------------|-----------------------------------------|-----------------------------------------|
B|---------|---------------------|-X----13---13---X----12---12---X----10---|-10---X----8----8----8----8----7----8----|
G|---------|--------------7------|-X----12---12---X----11---11---X----9----|-9----X----7----7----7----7----6----7----|
D|-2-------|-2-----5------7------|-X----10---10---X----9----9----X----7----|-7----X----5----5----5----5----4----5----|
A|-2-------|-2-----5------5------|-----------------------------------------|-----------------------------------------|
E|-0-------|-0-----3-------------|-----------------------------------------|-----------------------------------------|

E|-----------------------------------------|-----------------------------------------|
B|-X----10---10---X----8----8----X----7----|-7----X----5----5----5----5----3----5----|
G|-X----9----9----X----7----7----X----6----|-6----X----4----4----4----4----2----4----|
D|-X----7----7----X----5----5----X----4----|-4----X----2----2----2----2----0----2----|
A|-----------------------------------------|-----------------------------------------|
E|-----------------------------------------|-----------------------------------------|

E|-----------------------------------------|-----------------------------------------|
B|-X----13---13---X----12---12---X----10---|-10---X----8----8----8----8----7----8----|
G|-X----12---12---X----11---11---X----9----|-9----X----7----7----7----7----6----7----|
D|-X----10---10---X----9----9----X----7----|-7----X----5----5----5----5----4----5----|
A|-----------------------------------------|-----------------------------------------|
E|-----------------------------------------|-----------------------------------------|

E|-----------------------------------------|-----------------------------------------|
B|-X----10---10---X----8----8----X----7----|-7----X----5----5----5----5----3----5----|
G|-X----9----9----X----7----7----X----6----|-6----X----4----4----4----4----2----4----|
D|-X----7----7----X----5----5----X----4----|-4----X----2----2----2----2----0----2----|
A|-----------------------------------------|-----------------------------------------|
E|-----------------------------------------|-----------------------------------------|

E|-----------------------------------------|-----------------------------------------|
B|-X----13---13---X----12---12---X----10---|-10---X----8----8----8----8----7----8----|
G|-X----12---12---X----11---11---X----9----|-9----X----7----7----7----7----6----7----|
D|-X----10---10---X----9----9----X----7----|-7----X----5----5----5----5----4----5----|
A|-----------------------------------------|-----------------------------------------|
E|-----------------------------------------|-----------------------------------------|

E|-----------------------------------------|-----------------------------------------|
B|-X----10---10---X----8----8----X----7----|-7----X----5----5----5----5----3----5----|
G|-X----9----9----X----7----7----X----6----|-6----X----4----4----4----4----2----4----|
D|-X----7----7----X----5----5----X----4----|-4----X----2----2----2----2----0----2----|
A|-----------------------------------------|-----------------------------------------|
E|-----------------------------------------|-----------------------------------------|

E|-----------------------------------------|-----------------------------------------|
B|-X----13---13---X----12---12---X----10---|-10---X----8----8----8----8----7----8----|
G|-X----12---12---X----11---11---X----9----|-9----X----7----7----7----7----6----7----|
D|-X----10---10---X----9----9----X----7----|-7----X----5----5----5----5----4----5----|
A|-----------------------------------------|-----------------------------------------|
E|-----------------------------------------|-----------------------------------------|

E|-----------------------------------------|----------------------------|---------|
B|-X----10---10---X----8----8----X----7----|-7----X----5----5----5------|---------|
G|-X----9----9----X----7----7----X----6----|-6----X----4----4----4------|-9-------|
D|-X----7----7----X----5----5----X----4----|-4----X----2----2----2------|-9-------|
A|-----------------------------------------|----------------------------|-7-------|
E|-----------------------------------------|----------------------------|---------|

E|--------------------|---------|--------------------|---------|-----------------------------|
B|--------------------|---------|--------------------|---------|-----------------------------|
G|-9------12----5-----|-7-------|-7------4-----7-----|-9-------|-9-----9-----12----12---5----|
D|-9------12----5-----|-7-------|-7------4-----7-----|-9-------|-9-----9-----12----12---5----|
A|-7------10----3-----|-5-------|-5------2-----5-----|-7-------|-7-----7-----10----10---3----|
E|--------------------|---------|--------------------|---------|-----------------------------|

E|------------------------|---------|---------|--------------------|---------|--------------------|
B|------------------------|---------|---------|--------------------|---------|--------------------|
G|-5-----5----7----7------|-7-------|-9-------|-9------12----5-----|-7-------|-7------4-----7-----|
D|-5-----5----7----7------|-7-------|-9-------|-9------12----5-----|-7-------|-7------4-----7-----|
A|-3-----3----5----5------|-5-------|-7-------|-7------10----3-----|-5-------|-5------2-----5-----|
E|------------------------|---------|---------|--------------------|---------|--------------------|

E|---------|-----------------------------|------------------------|---------|---------|
B|---------|-----------------------------|------------------------|---------|---------|
G|-9-------|-9-----9-----12----12---5----|-5-----5----7----7------|-7-------|-2-------|
D|-9-------|-9-----9-----12----12---5----|-5-----5----7----7------|-7-------|-2-------|
A|-7-------|-7-----7-----10----10---3----|-3-----3----5----5------|-5-------|-0-------|
E|---------|-----------------------------|------------------------|---------|---------|

E|---------|---------|---------|---------|---------|---------|---------|---------|---------|
B|---------|---------|---------|---------|---------|---------|---------|---------|---------|
G|-4-------|-5-------|-7-------|-2-------|-4-------|-5-------|-7-------|-2-------|-4-------|
D|-4-------|-5-------|-7-------|-2-------|-4-------|-5-------|-7-------|-2-------|-4-------|
A|-2-------|-3-------|-5-------|-0-------|-2-------|-3-------|-5-------|-0-------|-2-------|
E|---------|---------|---------|---------|---------|---------|---------|---------|---------|

E|---------|---------|---------|---------|---------|---------|-----------------------------------------|
B|---------|---------|---------|---------|---------|---------|-X----13---13---X----12---12---X----10---|
G|-5-------|-7-------|-2-------|-4-------|-5-------|-7-------|-X----12---12---X----11---11---X----9----|
D|-5-------|-7-------|-2-------|-4-------|-5-------|-7-------|-X----10---10---X----9----9----X----7----|
A|-3-------|-5-------|-0-------|-2-------|-3-------|-5-------|-----------------------------------------|
E|---------|---------|---------|---------|---------|---------|-----------------------------------------|

E|-----------------------------------------|-----------------------------------------|
B|-10---X----8----8----8----8----7----8----|-X----10---10---X----8----8----X----7----|
G|-9----X----7----7----7----7----6----7----|-X----9----9----X----7----7----X----6----|
D|-7----X----5----5----5----5----4----5----|-X----7----7----X----5----5----X----4----|
A|-----------------------------------------|-----------------------------------------|
E|-----------------------------------------|-----------------------------------------|

E|-----------------------------------------|-----------------------------------------|
B|-7----X----5----5----5----5----3----5----|-X----13---13---X----12---12---X----10---|
G|-6----X----4----4----4----4----2----4----|-X----12---12---X----11---11---X----9----|
D|-4----X----2----2----2----2----0----2----|-X----10---10---X----9----9----X----7----|
A|-----------------------------------------|-----------------------------------------|
E|-----------------------------------------|-----------------------------------------|

E|-----------------------------------------|-----------------------------------------|
B|-10---X----8----8----8----8----7----8----|-X----10---10---X----8----8----X----7----|
G|-9----X----7----7----7----7----6----7----|-X----9----9----X----7----7----X----6----|
D|-7----X----5----5----5----5----4----5----|-X----7----7----X----5----5----X----4----|
A|-----------------------------------------|-----------------------------------------|
E|-----------------------------------------|-----------------------------------------|

E|-----------------------------------------|-----------------------------------------|
B|-7----X----5----5----5----5----3----5----|-X----13---13---X----12---12---X----10---|
G|-6----X----4----4----4----4----2----4----|-X----12---12---X----11---11---X----9----|
D|-4----X----2----2----2----2----0----2----|-X----10---10---X----9----9----X----7----|
A|-----------------------------------------|-----------------------------------------|
E|-----------------------------------------|-----------------------------------------|

E|-----------------------------------------|-----------------------------------------|
B|-10---X----8----8----8----8----7----8----|-X----10---10---X----8----8----X----7----|
G|-9----X----7----7----7----7----6----7----|-X----9----9----X----7----7----X----6----|
D|-7----X----5----5----5----5----4----5----|-X----7----7----X----5----5----X----4----|
A|-----------------------------------------|-----------------------------------------|
E|-----------------------------------------|-----------------------------------------|

E|-----------------------------------------|-----------------------------------------|
B|-7----X----5----5----5----5----3----5----|-X----13---13---X----12---12---X----10---|
G|-6----X----4----4----4----4----2----4----|-X----12---12---X----11---11---X----9----|
D|-4----X----2----2----2----2----0----2----|-X----10---10---X----9----9----X----7----|
A|-----------------------------------------|-----------------------------------------|
E|-----------------------------------------|-----------------------------------------|

E|-----------------------------------------|-----------------------------------------|
B|-10---X----8----8----8----8----7----8----|-X----10---10---X----8----8----X----7----|
G|-9----X----7----7----7----7----6----7----|-X----9----9----X----7----7----X----6----|
D|-7----X----5----5----5----5----4----5----|-X----7----7----X----5----5----X----4----|
A|-----------------------------------------|-----------------------------------------|
E|-----------------------------------------|-----------------------------------------|

E|-----------------------------------------|-----------------------------------------|
B|-7----X----5----5----5----5----3----5----|-X----13---13---X----12---12---X----10---|
G|-6----X----4----4----4----4----2----4----|-X----12---12---X----11---11---X----9----|
D|-4----X----2----2----2----2----0----2----|-X----10---10---X----9----9----X----7----|
A|-----------------------------------------|-----------------------------------------|
E|-----------------------------------------|-----------------------------------------|

E|-----------------------------------------|-----------------------------------------|
B|-10---X----8----8----8----8----7----8----|-X----10---10---X----8----8----X----7----|
G|-9----X----7----7----7----7----6----7----|-X----9----9----X----7----7----X----6----|
D|-7----X----5----5----5----5----4----5----|-X----7----7----X----5----5----X----4----|
A|-----------------------------------------|-----------------------------------------|
E|-----------------------------------------|-----------------------------------------|

E|----------------------------|---------|---------|---------|-------------------------------------|
B|-7----X----5----5----5------|-5-------|-5-------|---------|-----------7----8--------------------|
G|-6----X----4----4----4------|-4-------|-4-------|-%-------|-9----X--------------X----9----9-----|
D|-4----X----2----2----2------|-2-------|-2-------|-%-------|-------------------------------------|
A|----------------------------|---------|---------|---------|-------------------------------------|
E|----------------------------|---------|---------|---------|-------------------------------------|

E|-------------------------------------|----------------7------------------------|-------------------------------------|
B|-7----X----8----10---X----7----7-----|-8----X----10--------X----8----X----10---|-X----7----X----8--------------------|
G|-------------------------------------|-----------------------------------------|-------------------------------------|
D|-------------------------------------|-----------------------------------------|---------------------X----9----9-----|
A|-------------------------------------|-----------------------------------------|-------------------------------------|
E|-------------------------------------|-----------------------------------------|-------------------------------------|

E|-------------------------------------|-------------------------------------|----------------7------------------------|
B|-----------7----8--------------------|-7----X----8----10---X----7----7-----|-8----X----10--------X----8----X----10---|
G|-9----X--------------X----9----9-----|-------------------------------------|-----------------------------------------|
D|-------------------------------------|-------------------------------------|-----------------------------------------|
A|-------------------------------------|-------------------------------------|-----------------------------------------|
E|-------------------------------------|-------------------------------------|-----------------------------------------|

E|-------------------------------------|-------------------------------------|-------------------------------------|
B|-X----7----X----8--------------------|-----------7----8--------------------|-7----X----8----10---X----7----7-----|
G|-------------------------------------|-9----X--------------X----9----9-----|-------------------------------------|
D|---------------------X----9----9-----|-------------------------------------|-------------------------------------|
A|-------------------------------------|-------------------------------------|-------------------------------------|
E|-------------------------------------|-------------------------------------|-------------------------------------|

E|----------------7------------------------|-------------------------------------|-------------------------------------|
B|-8----X----10--------X----8----X----10---|-X----7----X----8--------------------|-----------7----8--------------------|
G|-----------------------------------------|-------------------------------------|-9----X--------------X----9----9-----|
D|-----------------------------------------|---------------------X----9----9-----|-------------------------------------|
A|-----------------------------------------|-------------------------------------|-------------------------------------|
E|-----------------------------------------|-------------------------------------|-------------------------------------|

E|-------------------------------------|----------------7------------------------|-------------------------------------|
B|-7----X----8----10---X----7----7-----|-8----X----10--------X----8----X----10---|-X----7----X----8--------------------|
G|-------------------------------------|-----------------------------------------|-------------------------------------|
D|-------------------------------------|-----------------------------------------|---------------------X----9----9-----|
A|-------------------------------------|-----------------------------------------|-------------------------------------|
E|-------------------------------------|-----------------------------------------|-------------------------------------|

E|----------------------------|----------------------------|-------------------------------------|
B|----------------------------|----------------------------|-------------------------------------|
G|----------------------------|----------------------------|-------------------------------------|
D|----------------------------|----------------------------|-------------------------------------|
A|----------------0----2------|-3----2----0----3----2------|-2----3----2----0----------0----2----|
E|-0----2----3----------------|----------------------------|---------------------3---------------|

E|----------------------------|----------------------------|----------------------------|
B|----------------------------|----------------------------|----------------------------|
G|---------------------7------|----------------------------|----------------------------|
D|---------------------7------|----------------------------|----------------------------|
A|-0-------------------5------|----------------0----2------|-3----2----0----3----2------|
E|------3----2----0-----------|-0----2----3----------------|----------------------------|

E|-------------------------------------|----------------------------|----------------------------|
B|-------------------------------------|----------------------------|----------------------------|
G|-------------------------------------|---------------------7------|----------------------------|
D|-------------------------------------|---------------------7------|----------------------------|
A|-2----3----2----0----------0----2----|-0-------------------5------|----------------0----2------|
E|---------------------3---------------|------3----2----0-----------|-0----2----3----------------|

E|----------------------------|-------------------------------------|----------------------------|
B|----------------------------|-------------------------------------|----------------------------|
G|----------------------------|-------------------------------------|---------------------7------|
D|----------------------------|-------------------------------------|---------------------7------|
A|-3----2----0----3----2------|-2----3----2----0----------0----2----|-0-------------------5------|
E|----------------------------|---------------------3---------------|------3----2----0-----------|

E|----------------------------|----------------------------|-------------------------------------|
B|----------------------------|----------------------------|-------------------------------------|
G|----------------------------|----------------------------|-------------------------------------|
D|----------------------------|----------------------------|-------------------------------------|
A|----------------0----2------|-3----2----0----3----2------|-2----3----2----0----------0----2----|
E|-0----2----3----------------|----------------------------|---------------------3---------------|

E|----------------------------|-------------------------------------|------------------------|
B|----------------------------|-------------------------------------|------------------------|
G|---------------------7------|-7----9----9----9----9-----5----5----|-5----7----7-----7------|
D|---------------------7------|-7----9----9----9----9-----5----5----|-5----7----7-----7------|
A|-0-------------------5------|-5----7----7----7----7-----3----3----|-3----5----5-----5------|
E|------3----2----0-----------|-------------------------------------|------------------------|

E|-------------------------------------|------------------------|-------------------------------------|
B|-------------------------------------|------------------------|-------------------------------------|
G|-7----7----7----7----7-----4----4----|-4----5----5-----5------|-7----9----9----9----9-----5----5----|
D|-7----7----7----7----7-----4----4----|-4----5----5-----5------|-7----9----9----9----9-----5----5----|
A|-5----5----5----5----5-----2----2----|-2----3----3-----3------|-5----7----7----7----7-----3----3----|
E|-------------------------------------|------------------------|-------------------------------------|

E|------------------------|-------------------------------------|-------------------------------------|
B|------------------------|-------------------------------------|-------------------------------------|
G|-5----7----7-----7------|-7----7----7----7----7-----4----4----|-4----5----5-------------------------|
D|-5----7----7-----7------|-7----7----7----7----7-----4----4----|-4----5----5-------------------------|
A|-3----5----5-----5------|-5----5----5----5----5-----2----2----|-2----3----3-----3----3----2---------|
E|------------------------|-------------------------------------|--------------------------------3----|

E|-------------------------------------|------------------------|-------------------------------------|
B|-------------------------------------|------------------------|-------------------------------------|
G|-7----9----9----9----9-----5----5----|-5----7----7-----7------|-7----7----7----7----7-----4----4----|
D|-7----9----9----9----9-----5----5----|-5----7----7-----7------|-7----7----7----7----7-----4----4----|
A|-5----7----7----7----7-----3----3----|-3----5----5-----5------|-5----5----5----5----5-----2----2----|
E|-------------------------------------|------------------------|-------------------------------------|

E|------------------------|-------------------------------------|------------------------|
B|------------------------|-------------------------------------|------------------------|
G|-4----5----5-----5------|-7----9----9----9----9-----5----5----|-5----7----7-----7------|
D|-4----5----5-----5------|-7----9----9----9----9-----5----5----|-5----7----7-----7------|
A|-2----3----3-----3------|-5----7----7----7----7-----3----3----|-3----5----5-----5------|
E|------------------------|-------------------------------------|------------------------|

E|-------------------------------------|-------------------------------------|---------|
B|-------------------------------------|-------------------------------------|---------|
G|-7----7----7----7----7-----4----4----|-4----5----5-------------------------|---------|
D|-7----7----7----7----7-----4----4----|-4----5----5-------------------------|-2-------|
A|-5----5----5----5----5-----2----2----|-2----3----3-----3----3----2---------|-2-------|
E|-------------------------------------|--------------------------------3----|-0-------|

E|---------------------|---------|---------------------|---------|---------------------|
B|---------------------|---------|---------------------|---------|---------------------|
G|-------5-------------|---------|--------------7------|---------|-------5-------------|
D|-2-----5------5------|-2-------|-2-----5------7------|-2-------|-2-----5------5------|
A|-2-----3------5------|-2-------|-2-----5------5------|-2-------|-2-----3------5------|
E|-0------------3------|-0-------|-0-----3-------------|-0-------|-0------------3------|

E|---------|---------------------|---------|---------|---------|---------|---------|
B|---------|---------------------|---------|---------|---------|---------|---------|
G|---------|--------------7------|---------|---------|---------|---------|-%-------|
D|-2-------|-2-----5------7------|-2-------|-2-------|-2-------|-2-------|-%-------|
A|-2-------|-2-----5------5------|-2-------|-2-------|-2-------|-2-------|---------|
E|-0-------|-0-----3-------------|-0-------|-0-------|-0-------|-0-------|---------|

E|---------|---------|---------|---------|---------|---------|---------|-------------------|
B|---------|---------|---------|---------|---------|---------|---------|-15---15---15------|
G|-%-------|-%-------|-%-------|-%-------|-%-------|-%-------|-%-------|-------------------|
D|-%-------|-%-------|-%-------|-%-------|-%-------|-%-------|-%-------|-------------------|
A|---------|---------|---------|---------|---------|---------|---------|-------------------|
E|---------|---------|---------|---------|---------|---------|---------|-------------------|

E|------12--------14---14----14----|-12---14---12--14--12------12----------12------------------|
B|-15--------15--------------------|-----------------------15------15--15------15--12------12--|
G|---------------------------------|---------------------------------------------------14------|
D|---------------------------------|-----------------------------------------------------------|
A|---------------------------------|-----------------------------------------------------------|
E|---------------------------------|-----------------------------------------------------------|

E|----------------------------------------------|-17----15---14---12--------12--14--12------|
B|-----------------------------------------12---|----------------------15---------------15--|
G|-14--12------12--14---12--14--14----%---------|-------------------------------------------|
D|---------14-------------------------%---------|-------------------------------------------|
A|----------------------------------------------|-------------------------------------------|
E|----------------------------------------------|-------------------------------------------|

E|-12-----------------------12--------|-------------------------------------|-------------12---14---15---12---|
B|-----15--15---15----15---------12---|-15---12-----------------------------|---------------------------------|
G|------------------------------------|-----------15---14---12---14---14----|-14----14------------------------|
D|------------------------------------|-------------------------------------|---------------------------------|
A|------------------------------------|-------------------------------------|---------------------------------|
E|------------------------------------|-------------------------------------|---------------------------------|

E|-14---15--14--12-------------15---14---15--14--|-12-------------15---14---15--14------------|
B|-------------------15---12---------------------|------15---12---------------------15---12---|
G|-----------------------------------------------|--------------------------------------------|
D|-----------------------------------------------|--------------------------------------------|
A|-----------------------------------------------|--------------------------------------------|
E|-----------------------------------------------|--------------------------------------------|

E|------14---15---14--15--14---12---------|---------17----|-15----14----12----12--14--12------12--------|
B|-15-------------------------------15----|-15------------|-------------------------------15-------15---|
G|----------------------------------------|---------------|---------------------------------------------|
D|----------------------------------------|---------------|---------------------------------------------|
A|----------------------------------------|---------------|---------------------------------------------|
E|----------------------------------------|---------------|---------------------------------------------|

E|-----------------------------------------------------------------|---------------------------------------|
B|-12--15--12------12----------------------------------------------|---------------------------------------|
G|-------------14------14--12--14--12------12--14--12------12------|-14----14--12--14---14--12--14---14----|
D|-------------------------------------14--------------14------14--|---------------------------------------|
A|-----------------------------------------------------------------|---------------------------------------|
E|-----------------------------------------------------------------|---------------------------------------|

E|---------|----------------------------9---11--|-12--11--9-------9-------------------9-------------------9-----------|
B|---------|-12----12---14---14----14-----------|-------------12------12--9-------9-------12--9-------9-------12--9---|
G|-14------|------------------------------------|-----------------------------11------------------11------------------|
D|---------|------------------------------------|---------------------------------------------------------------------|
A|---------|------------------------------------|---------------------------------------------------------------------|
E|---------|------------------------------------|---------------------------------------------------------------------|

E|---------9---------------4-----------4---7---4-----------------------|---------------------------|
B|-----9-------12--9---4-------7---4---------------7---4---------------|---------------------------|
G|-11------------------------------------------------------6---4-------|-6-----6---4---------------|
D|-----------------------------------------------------------------6---|---------------6-----------|
A|---------------------------------------------------------------------|--------------------4------|
E|---------------------------------------------------------------------|---------------------------|

E|-------------------------------------|-------------------------------------|-----------------------------------------|
B|-5----4---------4----4----5----4-----|-5----4---------4----4----------4----|-5----7----X----4----4----5----7----5----|
G|-----------6-------------------------|-----------6---------------6---------|-----------------------------------------|
D|-------------------------------------|-------------------------------------|-----------------------------------------|
A|-------------------------------------|-------------------------------------|-----------------------------------------|
E|-------------------------------------|-------------------------------------|-----------------------------------------|

E|----------------------------|-----------------------------------------------------------------|
B|-5----4---------------------|-----------------9---10------------------9---10----------9---10--|
G|-----------4----------------|-----8---9---11--------------8---9---11----------9---11----------|
D|----------------4----4------|-11----------------------11--------------------------------------|
A|----------------------------|-----------------------------------------------------------------|
E|----------------------------|-----------------------------------------------------------------|

E|------------------------9----|-11----11---12---12----11----|-11----9--------------------------14--16--17--|
B|-10----10----10----9---------|-----------------------------|------------9----9----14--16--17--------------|
G|-----------------------------|-----------------------------|----------------------------------------------|
D|-----------------------------|-----------------------------|----------------------------------------------|
A|-----------------------------|-----------------------------|----------------------------------------------|
E|-----------------------------|-----------------------------|----------------------------------------------|

E|-16--14------------------------------14--16--17--16--14----------|-----------------------------------------------------------------|
B|---------17--16--14------14--16--17----------------------17--16--|-14------14------------------------------------------------------|
G|---------------------16------------------------------------------|-----16------16--14------14--16--14------14--------------14------|
D|-----------------------------------------------------------------|---------------------16--------------16------16--14--16------16--|
A|-----------------------------------------------------------------|-----------------------------------------------------------------|
E|-----------------------------------------------------------------|-----------------------------------------------------------------|

E|-----------------------------14--16--17--17---17----|---------------------14--16--17--19----19----|
B|-----------------14--16--17-------------------------|---------14--16--17--------------------------|
G|---------14--16-------------------------------------|-14--16--------------------------------------|
D|-14--16---------------------------------------------|---------------------------------------------|
A|----------------------------------------------------|---------------------------------------------|
E|----------------------------------------------------|---------------------------------------------|

E|-----------------------------------------|-----------------------------------------|
B|-----------------------------------------|-----------------------------------------|
G|-----------------------------------------|--------------------------%---------%----|
D|-6----6----6----6----6----6----6----6----|-6----6----6----6----9----%----9----%----|
A|-6----6----6----6----6----6----6----6----|-6----6----6----6----9---------9---------|
E|-4----4----4----4----4----4----4----4----|-4----4----4----4----7---------7---------|

E|-----------------------------------------|-----------------------------------------|
B|-----------------------------------------|-----------------------------------------|
G|-----------------------------------------|--------------------------%---------%----|
D|-4----4----4----4----4----4----4----4----|-4----4----4----4----9----%----9----%----|
A|-4----4----4----4----4----4----4----4----|-4----4----4----4----9---------9---------|
E|-2----2----2----2----2----2----2----2----|-2----2----2----2----7---------7---------|

E|-----------------------------------------|-----------------------------------------|
B|-----------------------------------------|-----------------------------------------|
G|-----------------------------------------|--------------------------%---------%----|
D|-6----6----6----6----6----6----6----6----|-6----6----6----6----9----%----9----%----|
A|-6----6----6----6----6----6----6----6----|-6----6----6----6----9---------9---------|
E|-4----4----4----4----4----4----4----4----|-4----4----4----4----7---------7---------|

E|-----------------------------------------|-----------------------------------------|
B|-----------------------------------------|-----------------------------------------|
G|-----------------------------------------|--------------------------%---------%----|
D|-4----4----4----4----4----4----4----4----|-4----4----4----4----9----%----9----%----|
A|-4----4----4----4----4----4----4----4----|-4----4----4----4----9---------9---------|
E|-2----2----2----2----2----2----2----2----|-2----2----2----2----7---------7---------|

E|-----------------------------------------|-----------------------------------------|
B|-----------------------------------------|-----------------------------------------|
G|-----------------------------------------|--------------------------%---------%----|
D|-6----6----6----6----6----6----6----6----|-6----6----6----6----9----%----9----%----|
A|-6----6----6----6----6----6----6----6----|-6----6----6----6----9---------9---------|
E|-4----4----4----4----4----4----4----4----|-4----4----4----4----7---------7---------|

E|-----------------------------------------|-----------------------------------------|
B|-----------------------------------------|-----------------------------------------|
G|-----------------------------------------|--------------------------%---------%----|
D|-4----4----4----4----4----4----4----4----|-4----4----4----4----9----%----9----%----|
A|-4----4----4----4----4----4----4----4----|-4----4----4----4----9---------9---------|
E|-2----2----2----2----2----2----2----2----|-2----2----2----2----7---------7---------|

E|-----------------------------------------|-----------------------------------------|
B|-----------------------------------------|-----------------------------------------|
G|-----------------------------------------|--------------------------%---------%----|
D|-6----6----6----6----6----6----6----6----|-6----6----6----6----9----%----9----%----|
A|-6----6----6----6----6----6----6----6----|-6----6----6----6----9---------9---------|
E|-4----4----4----4----4----4----4----4----|-4----4----4----4----7---------7---------|

E|-----------------------------------------|-----------------------------------------|
B|-----------------------------------------|-----------------------------------------|
G|-----------------------------------------|--------------------------%---------%----|
D|-4----4----4----4----4----4----4----4----|-4----4----4----4----9----%----9----%----|
A|-4----4----4----4----4----4----4----4----|-4----4----4----4----9---------9---------|
E|-2----2----2----2----2----2----2----2----|-2----2----2----2----7---------7---------|

E|-----------------------------|----------------------------------------------------|
B|-----------------------10----|-10----10---10------------------10------------------|
G|-12----12---10---10----------|----------------12--10------10------12--10------10--|
D|-----------------------------|------------------------12------------------12------|
A|-----------------------------|----------------------------------------------------|
E|-----------------------------|----------------------------------------------------|

E|-----------------------------|----------------------------------------|-13----13----13---12---10-----------|
B|-13----13----13----13---10---|-10------10--10--11--10-----------------|----------------------------10--11--|
G|-----------------------------|-----13------------------13--12--10-----|------------------------------------|
D|-----------------------------|----------------------------------------|------------------------------------|
A|-----------------------------|----------------------------------------|------------------------------------|
E|-----------------------------|----------------------------------------|------------------------------------|

E|-----10--13--12--10------10---10-----|-----------------------------------------------------------------|
B|-13------------------13--------------|-----------------------------------------------------------------|
G|-------------------------------------|---------10----------10------10--12--10------10--12--10--12--14--|
D|-------------------------------------|-12--14------12--14------14--------------14----------------------|
A|-------------------------------------|-----------------------------------------------------------------|
E|-------------------------------------|-----------------------------------------------------------------|

E|-------------------------|-13----13---12---10--------10--------|------------------------------------------|
B|-12----------12--13------|----------------------10--------10---|-13----13----13---13--10--------------10--|
G|-----14--12--------------|-------------------------------------|--------------------------13--12--13------|
D|-------------------------|-------------------------------------|------------------------------------------|
A|-------------------------|-------------------------------------|------------------------------------------|
E|-------------------------|-------------------------------------|------------------------------------------|

E|-----------------------------------------------------------------|-------------10--13--10-------------------------|
B|-13--10--------------13--10--------------13--10------------------|---------10--------------10---------------------|
G|---------13--12--13----------13--12--13----------13--12--10------|-----10----------------------10-----------------|
D|-------------------------------------------------------------10--|-12------------------------------12-------------|
A|-----------------------------------------------------------------|-------------------------------------12--12-----|
E|-----------------------------------------------------------------|------------------------------------------------|

E|------------13---12---13---12--------|-12---13---12--13--12--------------12--13--12--------------|
B|--------------------------------13---|-----------------------15------15--------------15----------|
G|-12----12----------------------------|---------------------------14----------------------14------|
D|-------------------------------------|-------------------------------------------------------15--|
A|-------------------------------------|-----------------------------------------------------------|
E|-------------------------------------|-----------------------------------------------------------|

E|-------------------------------------|-------------------------------------|-----------------------------------------|
B|-------------------------------------|-------------------------------------|-X----13---13---X----12---12---X----10---|
G|-------------------------------------|-------------------------------------|-X----12---12---X----11---11---X----9----|
D|-12----10---12---12-------------10---|-------------------------------------|-X----10---10---X----9----9----X----7----|
A|----------------------12---10--------|-12---11---10---8----10---8----------|-----------------------------------------|
E|-------------------------------------|-------------------------------10----|-----------------------------------------|

E|-----------------------------------------|-----------------------------------------|
B|-10---X----8----8----8----8----7----8----|-X----10---10---X----8----8----X----7----|
G|-9----X----7----7----7----7----6----7----|-X----9----9----X----7----7----X----6----|
D|-7----X----5----5----5----5----4----5----|-X----7----7----X----5----5----X----4----|
A|-----------------------------------------|-----------------------------------------|
E|-----------------------------------------|-----------------------------------------|

E|-----------------------------------------|-----------------------------------------|
B|-7----X----5----5----5----5----3----5----|-X----13---13---X----12---12---X----10---|
G|-6----X----4----4----4----4----2----4----|-X----12---12---X----11---11---X----9----|
D|-4----X----2----2----2----2----0----2----|-X----10---10---X----9----9----X----7----|
A|-----------------------------------------|-----------------------------------------|
E|-----------------------------------------|-----------------------------------------|

E|-----------------------------------------|-----------------------------------------|
B|-10---X----8----8----8----8----7----8----|-X----10---10---X----8----8----X----7----|
G|-9----X----7----7----7----7----6----7----|-X----9----9----X----7----7----X----6----|
D|-7----X----5----5----5----5----4----5----|-X----7----7----X----5----5----X----4----|
A|-----------------------------------------|-----------------------------------------|
E|-----------------------------------------|-----------------------------------------|

E|-----------------------------------------|-----------------------------------------|
B|-7----X----5----5----5----5----3----5----|-X----13---13---X----12---12---X----10---|
G|-6----X----4----4----4----4----2----4----|-X----12---12---X----11---11---X----9----|
D|-4----X----2----2----2----2----0----2----|-X----10---10---X----9----9----X----7----|
A|-----------------------------------------|-----------------------------------------|
E|-----------------------------------------|-----------------------------------------|

E|-----------------------------------------|-----------------------------------------|
B|-10---X----8----8----8----8----7----8----|-X----10---10---X----8----8----X----7----|
G|-9----X----7----7----7----7----6----7----|-X----9----9----X----7----7----X----6----|
D|-7----X----5----5----5----5----4----5----|-X----7----7----X----5----5----X----4----|
A|-----------------------------------------|-----------------------------------------|
E|-----------------------------------------|-----------------------------------------|

E|-----------------------------------------|-----------------------------------------|
B|-7----X----5----5----5----5----3----5----|-X----13---13---X----12---12---X----10---|
G|-6----X----4----4----4----4----2----4----|-X----12---12---X----11---11---X----9----|
D|-4----X----2----2----2----2----0----2----|-X----10---10---X----9----9----X----7----|
A|-----------------------------------------|-----------------------------------------|
E|-----------------------------------------|-----------------------------------------|

E|-----------------------------------------|-----------------------------------------|
B|-10---X----8----8----8----8----7----8----|-X----10---10---X----8----8----X----7----|
G|-9----X----7----7----7----7----6----7----|-X----9----9----X----7----7----X----6----|
D|-7----X----5----5----5----5----4----5----|-X----7----7----X----5----5----X----4----|
A|-----------------------------------------|-----------------------------------------|
E|-----------------------------------------|-----------------------------------------|

E|-----------------------------------------|-----------------------------------------|
B|-7----X----5----5----5----5----3----5----|-X----13---13---X----12---12---X----10---|
G|-6----X----4----4----4----4----2----4----|-X----12---12---X----11---11---X----9----|
D|-4----X----2----2----2----2----0----2----|-X----10---10---X----9----9----X----7----|
A|-----------------------------------------|-----------------------------------------|
E|-----------------------------------------|-----------------------------------------|

E|-----------------------------------------|-----------------------------------------|
B|-10---X----8----8----8----8----7----8----|-X----10---10---X----8----8----X----7----|
G|-9----X----7----7----7----7----6----7----|-X----9----9----X----7----7----X----6----|
D|-7----X----5----5----5----5----4----5----|-X----7----7----X----5----5----X----4----|
A|-----------------------------------------|-----------------------------------------|
E|-----------------------------------------|-----------------------------------------|

E|-----------------------------------------|-----------------------------------------|
B|-7----X----5----5----5----5----3----5----|-X----13---13---X----12---12---X----10---|
G|-6----X----4----4----4----4----2----4----|-X----12---12---X----11---11---X----9----|
D|-4----X----2----2----2----2----0----2----|-X----10---10---X----9----9----X----7----|
A|-----------------------------------------|-----------------------------------------|
E|-----------------------------------------|-----------------------------------------|

E|-----------------------------------------|-----------------------------------------|
B|-10---X----8----8----8----8----7----8----|-X----10---10---X----8----8----X----7----|
G|-9----X----7----7----7----7----6----7----|-X----9----9----X----7----7----X----6----|
D|-7----X----5----5----5----5----4----5----|-X----7----7----X----5----5----X----4----|
A|-----------------------------------------|-----------------------------------------|
E|-----------------------------------------|-----------------------------------------|

E|-----------------------------------------|---------|--------------------|---------|
B|-7----X----5----5----5----5----3----5----|---------|--------------------|---------|
G|-6----X----4----4----4----4----2----4----|-9-------|-9------12----5-----|-7-------|
D|-4----X----2----2----2----2----0----2----|-9-------|-9------12----5-----|-7-------|
A|-----------------------------------------|-7-------|-7------10----3-----|-5-------|
E|-----------------------------------------|---------|--------------------|---------|

E|--------------------|---------|-----------------------------|------------------------|
B|--------------------|---------|-----------------------------|------------------------|
G|-7------4-----7-----|-9-------|-9-----9-----12----12---5----|-5-----5----7----7------|
D|-7------4-----7-----|-9-------|-9-----9-----12----12---5----|-5-----5----7----7------|
A|-5------2-----5-----|-7-------|-7-----7-----10----10---3----|-3-----3----5----5------|
E|--------------------|---------|-----------------------------|------------------------|

E|---------|---------|--------------------|---------|--------------------|---------|
B|---------|---------|--------------------|---------|--------------------|---------|
G|-7-------|-9-------|-9------12----5-----|-7-------|-7------4-----7-----|-9-------|
D|-7-------|-9-------|-9------12----5-----|-7-------|-7------4-----7-----|-9-------|
A|-5-------|-7-------|-7------10----3-----|-5-------|-5------2-----5-----|-7-------|
E|---------|---------|--------------------|---------|--------------------|---------|

E|-----------------------------|------------------------|---------|---------|--------------------|
B|-----------------------------|------------------------|---------|---------|--------------------|
G|-9-----9-----12----12---5----|-5-----5----7----7------|-7-------|-9-------|-9------12----5-----|
D|-9-----9-----12----12---5----|-5-----5----7----7------|-7-------|-9-------|-9------12----5-----|
A|-7-----7-----10----10---3----|-3-----3----5----5------|-5-------|-7-------|-7------10----3-----|
E|-----------------------------|------------------------|---------|---------|--------------------|

E|---------|--------------------|---------|-----------------------------|------------------------|
B|---------|--------------------|---------|-----------------------------|------------------------|
G|-7-------|-7------4-----7-----|-9-------|-9-----9-----12----12---5----|-5-----5----7----7------|
D|-7-------|-7------4-----7-----|-9-------|-9-----9-----12----12---5----|-5-----5----7----7------|
A|-5-------|-5------2-----5-----|-7-------|-7-----7-----10----10---3----|-3-----3----5----5------|
E|---------|--------------------|---------|-----------------------------|------------------------|

E|---------|---------|--------------------|---------|--------------------|---------|
B|---------|---------|--------------------|---------|--------------------|---------|
G|-7-------|-9-------|-9------12----5-----|-7-------|-7------4-----7-----|-9-------|
D|-7-------|-9-------|-9------12----5-----|-7-------|-7------4-----7-----|-9-------|
A|-5-------|-7-------|-7------10----3-----|-5-------|-5------2-----5-----|-7-------|
E|---------|---------|--------------------|---------|--------------------|---------|

E|-----------------------------|------------------------|---------|---------|---------------------|
B|-----------------------------|------------------------|---------|---------|---------------------|
G|-9-----9-----12----12---5----|-5-----5----7----7------|-7-------|---------|-------5-------------|
D|-9-----9-----12----12---5----|-5-----5----7----7------|-7-------|-2-------|-2-----5------5------|
A|-7-----7-----10----10---3----|-3-----3----5----5------|-5-------|-2-------|-2-----3------5------|
E|-----------------------------|------------------------|---------|-0-------|-0------------3------|

E|---------|---------------------|---------|---------------------|---------|---------------------|
B|---------|---------------------|---------|---------------------|---------|---------------------|
G|---------|--------------7------|---------|-------5-------------|---------|--------------7------|
D|-2-------|-2-----5------7------|-2-------|-2-----5------5------|-2-------|-2-----5------7------|
A|-2-------|-2-----5------5------|-2-------|-2-----3------5------|-2-------|-2-----5------5------|
E|-0-------|-0-----3-------------|-0-------|-0------------3------|-0-------|-0-----3-------------|

E|---------|---------|---------|---------|---------|---------|-0----10---12---0----8----12---0----7----|
B|---------|---------|---------|---------|---------|---------|-----------------------------------------|
G|---------|---------|---------|---------|-%-------|-%-------|-----------------------------------------|
D|-2-------|-2-------|-2-------|-2-------|-%-------|-%-------|-----------------------------------------|
A|-2-------|-2-------|-2-------|-2-------|---------|---------|-----------------------------------------|
E|-0-------|-0-------|-0-------|-0-------|---------|---------|-----------------------------------------|

E|-12---0----5----12---0----7----12----|-0----7----12---0----5----12---0----3----|-12---0----2----12---0-----12----|
B|-------------------------------------|-----------------------------------------|---------------------------------|
G|-------------------------------------|-----------------------------------------|---------------------------------|
D|-------------------------------------|-----------------------------------------|---------------------------------|
A|-------------------------------------|-----------------------------------------|---------------------------------|
E|-------------------------------------|-----------------------------------------|---------------------------------|

E|-0----10---12---0----8----12---0----7----|-12---0----5----12---0----7----12----|-0----7----12---0----5----12---0----3----|
B|-----------------------------------------|-------------------------------------|-----------------------------------------|
G|-----------------------------------------|-------------------------------------|-----------------------------------------|
D|-----------------------------------------|-------------------------------------|-----------------------------------------|
A|-----------------------------------------|-------------------------------------|-----------------------------------------|
E|-----------------------------------------|-------------------------------------|-----------------------------------------|

E|-12---0----2----12---0-----12----|-0----10---12---0----8----12---0----7----|-12---0----5----12---0----7----12----|
B|---------------------------------|-----------------------------------------|-------------------------------------|
G|---------------------------------|-----------------------------------------|-------------------------------------|
D|---------------------------------|-----------------------------------------|-------------------------------------|
A|---------------------------------|-----------------------------------------|-------------------------------------|
E|---------------------------------|-----------------------------------------|-------------------------------------|

E|-0----7----12---0----5----12---0----3----|-12---0----2----12---0-----0-----|---------|
B|-----------------------------------------|---------------------------------|---------|
G|-----------------------------------------|---------------------------------|-%-------|
D|-----------------------------------------|---------------------------------|-%-------|
A|-----------------------------------------|---------------------------------|---------|
E|-----------------------------------------|---------------------------------|---------|

E|---------|
B|---------|
G|-%-------|
D|-%-------|
A|---------|
E|---------|
Iron Maiden - Paschendale
Iron Maiden - Paschendale.gp3