Iron Maiden - Phantom Of The Opera (4)

Iron Maiden - Phantom Of The Opera (4)

Iron Maiden



Title: Phantom Of the Opera
Album: Iron Maiden
Artist: Iron Maiden
Author: Iron Maiden

Track 1: 1 Guitarra
E|----------------------------------|-------------------------------------------------|
B|----------------------------------|-------------------------------------------------|
G|-%-----%-----%-----%--------------|-4----4----4----5----4---------7-----4-----------|
D|-%-----%-----%-----%----4----5----|--------------------------5----------------5-----|
A|----------------------------------|-------------------------------------------------|
E|----------------------------------|-------------------------------------------------|

E|-------------------------------------|------------------------|-------------------------------------------------|
B|-------------------------------------|------------------------|-------------------------------------------------|
G|-5-----4-----------------------------|---------%--------------|-4----4----4----5----4---------7-----4-----------|
D|-------------5-----4-----5-----7-----|---------%----4----5----|--------------------------5----------------5-----|
A|-------------------------------------|-2----------------------|-------------------------------------------------|
E|-------------------------------------|------------------------|-------------------------------------------------|

E|-------------------------------------|----------------0----0----0----2----2----2----3----3----3----|
B|-------------------------------------|-3----3----3-------------------------------------------------|
G|-5-----4-----------------------------|-------------------------------------------------------------|
D|-------------5-----4-----5-----7-----|-------------------------------------------------------------|
A|-------------------------------------|-------------------------------------------------------------|
E|-------------------------------------|-------------------------------------------------------------|

E|-7----7----7----8----8----8----10---10---10---14---14---14---|-19---15--------19---15--------19---15--------19---15--------|
B|-------------------------------------------------------------|-----------17-------------17-------------17-------------17---|
G|-------------------------------------------------------------|-------------------------------------------------------------|
D|-------------------------------------------------------------|-------------------------------------------------------------|
A|-------------------------------------------------------------|-------------------------------------------------------------|
E|-------------------------------------------------------------|-------------------------------------------------------------|

E|-19---15--------19---15--------19---15--------19----|-------------------------------------------------------------|
B|-----------17-------------17-------------17---------|-------------------------------------------------------------|
G|----------------------------------------------------|-------------------------------------------------------------|
D|----------------------------------------------------|-------------------------------------------------------------|
A|----------------------------------------------------|-7----7----7----10---7----7----7----7----7----10---7----7----|
E|----------------------------------------------------|-------------------------------------------------------------|

E|-------------------------------------------|-------------------------------------------------------------|
B|-------------------------------------------|-------------------------------------------------------------|
G|-------------------------------12----7-----|-------------------------------------------------------------|
D|-------------------------------12----7-----|-------------------------------------------------------------|
A|-7----7----7----10---7----7----10----5-----|-7----7----7----10---7----7----7----7----7----10---7----7----|
E|-------------------------------------------|-------------------------------------------------------------|

E|-------------------------------------------|-------------------------------------------------------------|
B|-------------------------------------------|-------------------------------------------------------------|
G|-------------------------------12----7-----|-------------------------------------------------------------|
D|-------------------------------12----7-----|-------------------------------------------------------------|
A|-7----7----7----10---7----7----10----5-----|-7----7----7----10---7----7----7----7----7----10---7----7----|
E|-------------------------------------------|-------------------------------------------------------------|

E|-------------------------------------------|-------------------------------------------------------------|
B|-------------------------------------------|-------------------------------------------------------------|
G|-------------------------------12----7-----|-------------------------------------------------------------|
D|-------------------------------12----7-----|-------------------------------------------------------------|
A|-7----7----7----10---7----7----10----5-----|-7----7----7----10---7----7----7----7----7----10---7----7----|
E|-------------------------------------------|-------------------------------------------------------------|

E|-------------------------------------------|-------------------------------------------------------------|
B|-------------------------------------------|-------------------------------------------------------------|
G|-------------------------------12----7-----|-------------------------------------------------------------|
D|-------------------------------12----7-----|-------------------------------------------------------------|
A|-7----7----7----10---7----7----10----5-----|-9----9----9----12---9----9----9----9----9----12---9----9----|
E|-------------------------------------------|-------------------------------------------------------------|

E|-------------------------------------------------------------|-------------------------------------------------------------|
B|-------------------------------------------------------------|-------------------------------------------------------------|
G|-------------------------------------------------------------|-------------------------------------------------------------|
D|-------------------------------------------------------------|-------------------------------------------------------------|
A|-10---10---10---13---10---10---10---10---10---13---10---10---|-9----9----9----12---9----9----9----9----9----12---9----9----|
E|-------------------------------------------------------------|-------------------------------------------------------------|

E|-------------------------------------------------------------|-------------------------------------------------------------|
B|-------------------------------------------------------------|-------------------------------------------------------------|
G|-------------------------------------------------------------|-------------------------------------------------------------|
D|-------------------------------------------------------------|-------------------------------------------------------------|
A|-10---10---10---13---10---10---10---10---10---13---10---10---|-9----9----9----12---9----9----9----9----9----12---9----9----|
E|-------------------------------------------------------------|-------------------------------------------------------------|

E|-------------------------------------------------------------|-------------------------------------|
B|-------------------------------------------------------------|-------------------------------------|
G|-------------------------------------------------------------|-9-----9-----%-----4-----4-----%-----|
D|-------------------------------------------------------------|-9-----9-----%-----4-----4-----%-----|
A|-10---10---10---13---10---10---10---10---10---13---10---10---|-7-----7-----------2-----2-----------|
E|-------------------------------------------------------------|-------------------------------------|

E|-------------------------------------|-------------------------------------------------------------|
B|-------------------------------------|-------------------------------------------------------------|
G|-5-----5-----%-----7-----7-----7-----|-------------------------------------------------------------|
D|-5-----5-----%-----7-----7-----7-----|-------------------------------------------------------------|
A|-3-----3-----------5-----5-----5-----|-7----7----7----10---7----7----7----7----7----10---7----7----|
E|-------------------------------------|-------------------------------------------------------------|

E|-------------------------------------------------|-------------------------------------------------------------|
B|-------------------------------------------------|-------------------------------------------------------------|
G|-------------------------------7-----7-----7-----|-------------------------------------------------------------|
D|-------------------------------7-----7-----7-----|-------------------------------------------------------------|
A|-7----7----7----10---7----7----5-----5-----5-----|-7----7----7----10---7----7----7----7----7----10---7----7----|
E|-------------------------------------------------|-------------------------------------------------------------|

E|-------------------------------------------------|-------------------------------------|
B|-------------------------------------------------|-------------------------------------|
G|-------------------------------7-----7-----7-----|-9-----9-----%-----4-----4-----%-----|
D|-------------------------------7-----7-----7-----|-9-----9-----%-----4-----4-----%-----|
A|-7----7----7----10---7----7----5-----5-----5-----|-7-----7-----------2-----2-----------|
E|-------------------------------------------------|-------------------------------------|

E|-------------------------------------|-------------------------------------------------------------|
B|-------------------------------------|-------------------------------------------------------------|
G|-5-----5-----%-----7-----7-----7-----|-------------------------------------------------------------|
D|-5-----5-----%-----7-----7-----7-----|-------------------------------------------------------------|
A|-3-----3-----------5-----5-----5-----|-7----7----7----10---7----7----7----7----7----10---7----7----|
E|-------------------------------------|-------------------------------------------------------------|

E|-------------------------------------------------|-------------------------------------------------------------|
B|-------------------------------------------------|-------------------------------------------------------------|
G|-------------------------------7-----7-----7-----|-------------------------------------------------------------|
D|-------------------------------7-----7-----7-----|-------------------------------------------------------------|
A|-7----7----7----10---7----7----5-----5-----5-----|-7----7----7----10---7----7----7----7----7----10---7----7----|
E|-------------------------------------------------|-------------------------------------------------------------|

E|-------------------------------------------------------------|-------------------------------------------------|
B|-------------------------------------------------------------|-------------------------------------------------|
G|-------------------------------7----7----7----7--------------|-4----4----4----5----4---------7-----4-----------|
D|-------------------------------7----7----7----7----4----5----|--------------------------5----------------5-----|
A|-7----7----7----10---7----7----5----5----5----5--------------|-------------------------------------------------|
E|-------------------------------------------------------------|-------------------------------------------------|

E|-------------------------------------|-------------------------------------------------------------|
B|-------------------------------------|-------------------------------------------------------------|
G|-5-----4-----------------------------|-------------------------------------------------------------|
D|-------------5-----4-----5-----7-----|-------------------------------------------------------------|
A|-------------------------------------|-7----7----7----10---7----7----7----7----7----10---7----7----|
E|-------------------------------------|-------------------------------------------------------------|

E|-------------------------------------------------|-------------------------------------------------------------|
B|-------------------------------------------------|-------------------------------------------------------------|
G|-------------------------------7-----7-----7-----|-------------------------------------------------------------|
D|-------------------------------7-----7-----7-----|-------------------------------------------------------------|
A|-7----7----7----10---7----7----5-----5-----5-----|-7----7----7----10---7----7----7----7----7----10---7----7----|
E|-------------------------------------------------|-------------------------------------------------------------|

E|-------------------------------------------------------------|-------------------------------------------------|
B|-------------------------------------------------------------|-------------------------------------------------|
G|-------------------------------7----7----7----7--------------|-4----4----4----5----4---------7-----4-----------|
D|-------------------------------7----7----7----7----4----5----|--------------------------5----------------5-----|
A|-7----7----7----10---7----7----5----5----5----5--------------|-------------------------------------------------|
E|-------------------------------------------------------------|-------------------------------------------------|

E|-------------------------------------|-------------------------------------------------------------|
B|-------------------------------------|-------------------------------------------------------------|
G|-5-----4-----------------------------|-------------------------------------------------------------|
D|-------------5-----4-----5-----7-----|-------------------------------------------------------------|
A|-------------------------------------|-7----7----7----10---7----7----7----7----7----10---7----7----|
E|-------------------------------------|-------------------------------------------------------------|

E|-------------------------------------------------|-------------------------------------------------------------|
B|-------------------------------------------------|-------------------------------------------------------------|
G|-------------------------------7-----7-----7-----|-------------------------------------------------------------|
D|-------------------------------7-----7-----7-----|-------------------------------------------------------------|
A|-7----7----7----10---7----7----5-----5-----5-----|-7----7----7----10---7----7----7----7----7----10---7----7----|
E|-------------------------------------------------|-------------------------------------------------------------|

E|-------------------------------------------------|-------------------------------------|
B|-------------------------------------------------|-------------------------------------|
G|-------------------------------7-----7-----7-----|-9-----9-----%-----4-----4-----%-----|
D|-------------------------------7-----7-----7-----|-9-----9-----%-----4-----4-----%-----|
A|-7----7----7----10---7----7----5-----5-----5-----|-7-----7-----------2-----2-----------|
E|-------------------------------------------------|-------------------------------------|

E|-------------------------------------|-------------------------------------------------------------|
B|-------------------------------------|-------------------------------------------------------------|
G|-5-----5-----%-----7-----7-----7-----|-------------------------------------------------------------|
D|-5-----5-----%-----7-----7-----7-----|-------------------------------------------------------------|
A|-3-----3-----------5-----5-----5-----|-7----7----7----10---7----7----7----7----7----10---7----7----|
E|-------------------------------------|-------------------------------------------------------------|

E|-------------------------------------------------|-------------------------------------------------------------|
B|-------------------------------------------------|-------------------------------------------------------------|
G|-------------------------------7-----7-----7-----|-------------------------------------------------------------|
D|-------------------------------7-----7-----7-----|-------------------------------------------------------------|
A|-7----7----7----10---7----7----5-----5-----5-----|-7----7----7----10---7----7----7----7----7----10---7----7----|
E|-------------------------------------------------|-------------------------------------------------------------|

E|-------------------------------------------------|-------------------------------------|
B|-------------------------------------------------|-------------------------------------|
G|-------------------------------7-----7-----7-----|-9-----9-----%-----4-----4-----%-----|
D|-------------------------------7-----7-----7-----|-9-----9-----%-----4-----4-----%-----|
A|-7----7----7----10---7----7----5-----5-----5-----|-7-----7-----------2-----2-----------|
E|-------------------------------------------------|-------------------------------------|

E|-------------------------------------|-------------------------------------------------------------|
B|-------------------------------------|-------------------------------------------------------------|
G|-5-----5-----%-----7-----7-----7-----|-------------------------------------------------------------|
D|-5-----5-----%-----7-----7-----7-----|-------------------------------------------------------------|
A|-3-----3-----------5-----5-----5-----|-7----7----7----10---7----7----7----7----7----10---7----7----|
E|-------------------------------------|-------------------------------------------------------------|

E|-------------------------------------------------|-------------------------------------------------------------|
B|-------------------------------------------------|-------------------------------------------------------------|
G|-------------------------------7-----7-----7-----|-------------------------------------------------------------|
D|-------------------------------7-----7-----7-----|-------------------------------------------------------------|
A|-7----7----7----10---7----7----5-----5-----5-----|-7----7----7----10---7----7----7----7----7----10---7----7----|
E|-------------------------------------------------|-------------------------------------------------------------|

E|-------------------------------------------------------------|-------------------------------------------------|
B|-------------------------------------------------------------|-------------------------------------------------|
G|-------------------------------7----7----7----7--------------|-4----4----4----5----4---------7-----4-----------|
D|-------------------------------7----7----7----7----4----5----|--------------------------5----------------5-----|
A|-7----7----7----10---7----7----5----5----5----5--------------|-------------------------------------------------|
E|-------------------------------------------------------------|-------------------------------------------------|

E|-------------------------------------|-------------------------------------------------------------|
B|-------------------------------------|-------------------------------------------------------------|
G|-5-----4-----------------------------|-------------------------------------------------------------|
D|-------------5-----4-----5-----7-----|-------------------------------------------------------------|
A|-------------------------------------|-7----7----7----10---7----7----7----7----7----10---7----7----|
E|-------------------------------------|-------------------------------------------------------------|

E|-------------------------------------------------|-------------------------------------------------------------|
B|-------------------------------------------------|-------------------------------------------------------------|
G|-------------------------------7-----7-----7-----|-------------------------------------------------------------|
D|-------------------------------7-----7-----7-----|-------------------------------------------------------------|
A|-7----7----7----10---7----7----5-----5-----5-----|-7----7----7----10---7----7----7----7----7----10---7----7----|
E|-------------------------------------------------|-------------------------------------------------------------|

E|-------------------------------------------------------------|-------------------------------------------------|
B|-------------------------------------------------------------|-------------------------------------------------|
G|-------------------------------7----7----7----7--------------|-4----4----4----5----4---------7-----4-----------|
D|-------------------------------7----7----7----7----4----5----|--------------------------5----------------5-----|
A|-7----7----7----10---7----7----5----5----5----5--------------|-------------------------------------------------|
E|-------------------------------------------------------------|-------------------------------------------------|

E|-------------------------------------|-------------------------------------------------------------|
B|-------------------------------------|-------------------------------------------------------------|
G|-5-----4-----------------------------|-------------------------------------------------------------|
D|-------------5-----4-----5-----7-----|-------------------------------------------------------------|
A|-------------------------------------|-7----7----7----10---7----7----7----7----7----10---7----7----|
E|-------------------------------------|-------------------------------------------------------------|

E|-------------------------------------------------|-------------------------------------------------------------|
B|-------------------------------------------------|-------------------------------------------------------------|
G|-------------------------------7-----7-----7-----|-------------------------------------------------------------|
D|-------------------------------7-----7-----7-----|-------------------------------------------------------------|
A|-7----7----7----10---7----7----5-----5-----5-----|-7----7----7----10---7----7----7----7----7----10---7----7----|
E|-------------------------------------------------|-------------------------------------------------------------|

E|-------------------------------------------------|-------------------------------------|
B|-------------------------------------------------|-------------------------------------|
G|-------------------------------7-----7-----7-----|-9-----9-----%-----4-----4-----%-----|
D|-------------------------------7-----7-----7-----|-9-----9-----%-----4-----4-----%-----|
A|-7----7----7----10---7----7----5-----5-----5-----|-7-----7-----------2-----2-----------|
E|-------------------------------------------------|-------------------------------------|

E|-------------------------------------|-------------------------------------------------------------|
B|-------------------------------------|-------------------------------------------------------------|
G|-5-----5-----%-----7-----7-----7-----|-------------------------------------------------------------|
D|-5-----5-----%-----7-----7-----7-----|-------------------------------------------------------------|
A|-3-----3-----------5-----5-----5-----|-7----7----7----10---7----7----7----7----7----10---7----7----|
E|-------------------------------------|-------------------------------------------------------------|

E|-------------------------------------------------|-------------------------------------------------------------|
B|-------------------------------------------------|-------------------------------------------------------------|
G|-------------------------------7-----7-----7-----|-------------------------------------------------------------|
D|-------------------------------7-----7-----7-----|-------------------------------------------------------------|
A|-7----7----7----10---7----7----5-----5-----5-----|-7----7----7----10---7----7----7----7----7----10---7----7----|
E|-------------------------------------------------|-------------------------------------------------------------|

E|-------------------------------------------------|-------------------------------------|
B|-------------------------------------------------|-------------------------------------|
G|-------------------------------7-----7-----7-----|-9-----9-----%-----4-----4-----%-----|
D|-------------------------------7-----7-----7-----|-9-----9-----%-----4-----4-----%-----|
A|-7----7----7----10---7----7----5-----5-----5-----|-7-----7-----------2-----2-----------|
E|-------------------------------------------------|-------------------------------------|

E|-------------------------------------|-------------------------------------------------------------|
B|-------------------------------------|-------------------------------------------------------------|
G|-5-----5-----%-----7-----7-----7-----|-------------------------------------------------------------|
D|-5-----5-----%-----7-----7-----7-----|-------------------------------------------------------------|
A|-3-----3-----------5-----5-----5-----|-7----7----7----10---7----7----7----7----7----10---7----7----|
E|-------------------------------------|-------------------------------------------------------------|

E|-------------------------------------------------|-------------------------------------------------------------|
B|-------------------------------------------------|-------------------------------------------------------------|
G|-------------------------------7-----7-----7-----|-------------------------------------------------------------|
D|-------------------------------7-----7-----7-----|-------------------------------------------------------------|
A|-7----7----7----10---7----7----5-----5-----5-----|-7----7----7----10---7----7----7----7----7----10---7----7----|
E|-------------------------------------------------|-------------------------------------------------------------|

E|-------------------------------------------------|-------------------------------------|
B|-------------------------------------------------|-------------------------------------|
G|-------------------------------7-----7-----%-----|-9-----9-----%-----4-----4-----%-----|
D|-------------------------------7-----7-----%-----|-9-----9-----%-----4-----4-----%-----|
A|-7----7----7----10---7----7----5-----5-----------|-7-----7-----------2-----2-----------|
E|-------------------------------------------------|-------------------------------------|

E|-------------------------------------|-----------------------------------------|---------------------------------|
B|-------------------------------------|-----------------------------------------|---------------------------------|
G|-5-----5-----5-----7-----7-----7-----|-----------9-------------------9---------|-----------9---------9-----7-----|
D|-5-----5-----5-----7-----7-----7-----|------9---------9---------9---------9----|------9---------9----9-----7-----|
A|-3-----3-----3-----5-----5-----5-----|-7-------------------7-------------------|-7-------------------7-----5-----|
E|-------------------------------------|-----------------------------------------|---------------------------------|

E|-----------------------------------------|---------------------------------|-----------------------------------------|
B|-----------------------------------------|---------------------------------|-----------------------------------------|
G|-----------9-------------------9---------|-----------9---------9-----7-----|-----------7-------------------7---------|
D|------9---------9---------9---------9----|------9---------9----9-----7-----|------7---------7---------7---------7----|
A|-7-------------------7-------------------|-7-------------------7-----5-----|-5-------------------5-------------------|
E|-----------------------------------------|---------------------------------|-----------------------------------------|

E|-----------------------------------------|-----------------------------------------|
B|-----------------------------------------|-----------------------------------------|
G|-----------5-------------------5---------|-----------9-------------------9---------|
D|------5---------5---------5---------5----|------9---------9---------9---------9----|
A|-3-------------------3-------------------|-7-------------------7-------------------|
E|-----------------------------------------|-----------------------------------------|

E|---------------------------------|-----------------------------------------|---------------------------------|
B|---------------------------------|-----------------------------------------|---------------------------------|
G|-----------9---------9-----7-----|-----------9-------------------9---------|-----------9---------9-----7-----|
D|------9---------9----9-----7-----|------9---------9---------9---------9----|------9---------9----9-----7-----|
A|-7-------------------7-----5-----|-7-------------------7-------------------|-7-------------------7-----5-----|
E|---------------------------------|-----------------------------------------|---------------------------------|

E|-----------------------------------------|---------------------------------|-----------------------------------------|
B|-----------------------------------------|---------------------------------|-----------------------------------------|
G|-----------9-------------------9---------|-----------9---------9-----7-----|-----------7-------------------7---------|
D|------9---------9---------9---------9----|------9---------9----9-----7-----|------7---------7---------7---------7----|
A|-7-------------------7-------------------|-7-------------------7-----5-----|-5-------------------5-------------------|
E|-----------------------------------------|---------------------------------|-----------------------------------------|

E|-----------------------------------------|-----------------------------------------|
B|-----------------------------------------|-----------------------------------------|
G|-----------5-------------------5---------|-----------9-------------------9---------|
D|------5---------5---------5---------5----|------9---------9---------9---------9----|
A|-3-------------------3-------------------|-7-------------------7-------------------|
E|-----------------------------------------|-----------------------------------------|

E|---------------------------------|-----------------------------------------|---------------------------------|
B|---------------------------------|-----------------------------------------|---------------------------------|
G|-----------9---------9-----7-----|-----------9-------------------9---------|-----------9---------9-----7-----|
D|------9---------9----9-----7-----|------9---------9---------9---------9----|------9---------9----9-----7-----|
A|-7-------------------7-----5-----|-7-------------------7-------------------|-7-------------------7-----5-----|
E|---------------------------------|-----------------------------------------|---------------------------------|

E|-----------------------------------------|---------------------------------|---------|
B|-----------------------------------------|---------------------------------|---------|
G|-----------9-------------------9---------|-----------9---------9-----7-----|-14------|
D|------9---------9---------9---------9----|------9---------9----9-----7-----|---------|
A|-7-------------------7-------------------|-7-------------------7-----5-----|---------|
E|-----------------------------------------|---------------------------------|---------|

E|------12----------|-------------------|-----------------------|-13----12---13---12---------|
B|------12---15-----|-15----15----------|-----------------------|----------------------15----|
G|-14---------------|-------------14----|-16---14---12---12-----|----------------------------|
D|------------------|-------------------|-----------------------|----------------------------|
A|------------------|-------------------|-----------------------|----------------------------|
E|------------------|-------------------|-----------------------|----------------------------|

E|-15----13---15---13---12---13---12---|---------|-----------------12----|-12---13---12-----|
B|-------------------------------------|-15------|-15----12---15---------|------------------|
G|-------------------------------------|---------|-----------------------|------------------|
D|-------------------------------------|---------|-----------------------|------------------|
A|-------------------------------------|---------|-----------------------|------------------|
E|-------------------------------------|---------|-----------------------|------------------|

E|-12----12----12----|-12----------12----|--------12----|-13----12---13---12---------|
B|-------------------|--------15---------|-12-----------|----------------------15----|
G|-------------------|-------------------|--------------|----------------------------|
D|-------------------|-------------------|--------------|----------------------------|
A|-------------------|-------------------|--------------|----------------------------|
E|-------------------|-------------------|--------------|----------------------------|

E|-15----13---15---13---12---13---12---|---------|-12---13---15---17---17----|-19------|
B|-------------------------------------|-15------|---------------------------|---------|
G|-------------------------------------|---------|---------------------------|---------|
D|-------------------------------------|---------|---------------------------|---------|
A|-------------------------------------|---------|---------------------------|---------|
E|-------------------------------------|---------|---------------------------|---------|

E|-17--19--17--19--17--19--17---13---17---|-13--17--13--17--13--17--13---12---15---|
B|----------------------------------------|----------------------------------------|
G|----------------------------------------|----------------------------------------|
D|----------------------------------------|----------------------------------------|
A|----------------------------------------|----------------------------------------|
E|----------------------------------------|----------------------------------------|

E|-12---10---12---12-----|-13----12---13---12---10----|-15----13---15---13---12---13---12---|
B|-----------------------|----------------------------|-------------------------------------|
G|-----------------------|----------------------------|-------------------------------------|
D|-----------------------|----------------------------|-------------------------------------|
A|-----------------------|----------------------------|-------------------------------------|
E|-----------------------|----------------------------|-------------------------------------|

E|---------|-------------------------------|-----------------------|-----------------------|
B|-15------|-15---15-------------12---12---|-----------------------|-----------------------|
G|---------|-----------12---14-------------|-14-----12---14---12---|-----------------------|
D|---------|-------------------------------|-----------------------|-15-----15---17---15---|
A|---------|-------------------------------|-----------------------|-----------------------|
E|---------|-------------------------------|-----------------------|-----------------------|

E|-------------------------------------|-------------12---|-13----12---13---12---------|
B|-------------------------------------|--------12--------|----------------------15----|
G|-------------------------------------|------------------|----------------------------|
D|-14--15--14--15--14---12---14---12---|-12---------------|----------------------------|
A|-------------------------------------|------------------|----------------------------|
E|-------------------------------------|------------------|----------------------------|

E|-15----13---15---13---12---13---12---|---------|--------------|---------|---------|
B|-------------------------------------|-15------|-15-----------|---------|---------|
G|-------------------------------------|---------|--------%-----|-%-------|-%-------|
D|-------------------------------------|---------|--------%-----|-%-------|-%-------|
A|-------------------------------------|---------|--------------|---------|---------|
E|-------------------------------------|---------|--------------|---------|---------|

E|-19---15--------19---15--------19---15--------19---15--------|-17---14--------17---14--------17---14--------17---14--------|
B|-----------17-------------17-------------17-------------17---|-----------15-------------15-------------15-------------15---|
G|-------------------------------------------------------------|-------------------------------------------------------------|
D|-------------------------------------------------------------|-------------------------------------------------------------|
A|-------------------------------------------------------------|-------------------------------------------------------------|
E|-------------------------------------------------------------|-------------------------------------------------------------|

E|-15---12--------15---12--------15---12--------15---12--------|-17---14--------17---14--------17---14--------17---14--------|
B|-----------13-------------13-------------13-------------13---|-----------15-------------15-------------15-------------15---|
G|-------------------------------------------------------------|-------------------------------------------------------------|
D|-------------------------------------------------------------|-------------------------------------------------------------|
A|-------------------------------------------------------------|-------------------------------------------------------------|
E|-------------------------------------------------------------|-------------------------------------------------------------|

E|-19---15--------19---15--------19---15--------19---15--------|-17---14--------17---14--------17---14--------17---14--------|
B|-----------17-------------17-------------17-------------17---|-----------15-------------15-------------15-------------15---|
G|-------------------------------------------------------------|-------------------------------------------------------------|
D|-------------------------------------------------------------|-------------------------------------------------------------|
A|-------------------------------------------------------------|-------------------------------------------------------------|
E|-------------------------------------------------------------|-------------------------------------------------------------|

E|-15---12--------15---12--------15---12--------15---12--------|-17---14--------17---14--------17---14--------17---14--------|
B|-----------13-------------13-------------13-------------13---|-----------15-------------15-------------15-------------15---|
G|-------------------------------------------------------------|-------------------------------------------------------------|
D|-------------------------------------------------------------|-------------------------------------------------------------|
A|-------------------------------------------------------------|-------------------------------------------------------------|
E|-------------------------------------------------------------|-------------------------------------------------------------|

E|-19---15--------19---15--------19---15--------19---15--------|-17---14--------17---14--------17---14--------17---14--------|
B|-----------17-------------17-------------17-------------17---|-----------15-------------15-------------15-------------15---|
G|-------------------------------------------------------------|-------------------------------------------------------------|
D|-------------------------------------------------------------|-------------------------------------------------------------|
A|-------------------------------------------------------------|-------------------------------------------------------------|
E|-------------------------------------------------------------|-------------------------------------------------------------|

E|-15---12--------15---12--------15---12--------15---12--------|-17---14--------17---14--------17---14--------17---14--------|
B|-----------13-------------13-------------13-------------13---|-----------15-------------15-------------15-------------15---|
G|-------------------------------------------------------------|-------------------------------------------------------------|
D|-------------------------------------------------------------|-------------------------------------------------------------|
A|-------------------------------------------------------------|-------------------------------------------------------------|
E|-------------------------------------------------------------|-------------------------------------------------------------|

E|-19---15--------19---15--------19---15--------19---15--------|-17---14--------17---14--------17---14--------17---14--------|
B|-----------17-------------17-------------17-------------17---|-----------15-------------15-------------15-------------15---|
G|-------------------------------------------------------------|-------------------------------------------------------------|
D|-------------------------------------------------------------|-------------------------------------------------------------|
A|-------------------------------------------------------------|-------------------------------------------------------------|
E|-------------------------------------------------------------|-------------------------------------------------------------|

E|-15---12--------15---12--------15---12--------15---12--------|-12---12---12---12---12---12---14---14---14---14---14---14---|
B|-----------13-------------13-------------13-------------13---|-13---13---13---13---13---13---15---15---15---15---15---15---|
G|-------------------------------------------------------------|-------------------------------------------------------------|
D|-------------------------------------------------------------|-------------------------------------------------------------|
A|-------------------------------------------------------------|-------------------------------------------------------------|
E|-------------------------------------------------------------|-------------------------------------------------------------|

E|-19---15--------19---15--------19---15--------19---15--------|-17---14--------17---14--------17---14--------17---14--------|
B|-----------17-------------17-------------17-------------17---|-----------15-------------15-------------15-------------15---|
G|-------------------------------------------------------------|-------------------------------------------------------------|
D|-------------------------------------------------------------|-------------------------------------------------------------|
A|-------------------------------------------------------------|-------------------------------------------------------------|
E|-------------------------------------------------------------|-------------------------------------------------------------|

E|-15---12--------15---12--------15---12--------15---12--------|-12---12---12---12---12---12---14---14---14---14---14---14---|
B|-----------13-------------13-------------13-------------13---|-13---13---13---13---13---13---15---15---15---15---15---15---|
G|-------------------------------------------------------------|-------------------------------------------------------------|
D|-------------------------------------------------------------|-------------------------------------------------------------|
A|-------------------------------------------------------------|-------------------------------------------------------------|
E|-------------------------------------------------------------|-------------------------------------------------------------|

E|-19---15--------19---15--------19---15--------19---15--------|-17---14--------17---14--------17---14--------17---14--------|
B|-----------17-------------17-------------17-------------17---|-----------15-------------15-------------15-------------15---|
G|-------------------------------------------------------------|-------------------------------------------------------------|
D|-------------------------------------------------------------|-------------------------------------------------------------|
A|-------------------------------------------------------------|-------------------------------------------------------------|
E|-------------------------------------------------------------|-------------------------------------------------------------|

E|-15---12--------15---12--------15---12--------15---12--------|-12---12---12---12---12---12---14---14---14---14---14---14---|
B|-----------13-------------13-------------13-------------13---|-13---13---13---13---13---13---15---15---15---15---15---15---|
G|-------------------------------------------------------------|-------------------------------------------------------------|
D|-------------------------------------------------------------|-------------------------------------------------------------|
A|-------------------------------------------------------------|-------------------------------------------------------------|
E|-------------------------------------------------------------|-------------------------------------------------------------|

E|-19---15--------19---15--------19---15--------19---15--------|-17---14--------17---14--------17---14--------17---14--------|
B|-----------17-------------17-------------17-------------17---|-----------15-------------15-------------15-------------15---|
G|-------------------------------------------------------------|-------------------------------------------------------------|
D|-------------------------------------------------------------|-------------------------------------------------------------|
A|-------------------------------------------------------------|-------------------------------------------------------------|
E|-------------------------------------------------------------|-------------------------------------------------------------|

E|-15---12--------15---12--------15---12--------15---12--------|-------------------------------13---12---10------------------|
B|-----------13-------------13-------------13-------------13---|-13---12---10---13---12---10------------------13---12---10---|
G|-------------------------------------------------------------|-------------------------------------------------------------|
D|-------------------------------------------------------------|-------------------------------------------------------------|
A|-------------------------------------------------------------|-------------------------------------------------------------|
E|-------------------------------------------------------------|-------------------------------------------------------------|

E|-19---15--------19---15--------19---15--------19---15--------|-17---14--------17---14--------17---14--------17---14--------|
B|-----------17-------------17-------------17-------------17---|-----------15-------------15-------------15-------------15---|
G|-------------------------------------------------------------|-------------------------------------------------------------|
D|-------------------------------------------------------------|-------------------------------------------------------------|
A|-------------------------------------------------------------|-------------------------------------------------------------|
E|-------------------------------------------------------------|-------------------------------------------------------------|

E|-15---12--------15---12--------15---12--------15---12--------|----------------------------------------------13---12---10---|
B|-----------13-------------13-------------13-------------13---|-13---12---10---13---12---10---13---12---10------------------|
G|-------------------------------------------------------------|-------------------------------------------------------------|
D|-------------------------------------------------------------|-------------------------------------------------------------|
A|-------------------------------------------------------------|-------------------------------------------------------------|
E|-------------------------------------------------------------|-------------------------------------------------------------|

E|------------------------|------------------------|------------------------|----------------------------------------------------|
B|------------------------|------------------------|------------------------|----------------------------------------------------|
G|------------------------|------------------------|------------------------|-12---12---12---12---12---12---11---11---11---11----|
D|-9-------9----9----9----|-12------12---12---12---|-14------14---14---14---|-10---10---10---10---10---10---9----9----9----9-----|
A|-7-------7----7----7----|-10------10---10---10---|-12------12---12---12---|----------------------------------------------------|
E|------------------------|------------------------|------------------------|----------------------------------------------------|

E|------------------------|------------------------|------------------------|----------------------------------------------------|
B|------------------------|------------------------|------------------------|----------------------------------------------------|
G|------------------------|------------------------|------------------------|-12---12---12---12---12---12---11---11---11---11----|
D|-9-------9----9----9----|-12------12---12---12---|-14------14---14---14---|-10---10---10---10---10---10---9----9----9----9-----|
A|-7-------7----7----7----|-10------10---10---10---|-12------12---12---12---|----------------------------------------------------|
E|------------------------|------------------------|------------------------|----------------------------------------------------|

E|--------------------------------------------------------|--------------------------------------------------------|
B|--------------------------------------------------------|--------------------------------------------------------|
G|--------------------------------------------------------|--------------------------------------------------------|
D|-9----9---9---9----9---9---9----9---9---9---------------|-9----9---9---9----9---9---9----9---9---9---------------|
A|-7----7---7---7----7---7---7----7---7---7---5-------5---|-7----7---7---7----7---7---7----7---7---7---5-------5---|
E|------------------------------------------------7-------|------------------------------------------------7-------|

E|-----------------------------------------------------|--------------------------------|
B|-----------------------------------------------------|--------------------------------|
G|-----------------------------------------------------|--------------------------------|
D|-12---12--12--12---12--12--12---12--12--12---12--13--|-14---14--14--14----5-----7-----|
A|-10---10--10--10---10--10--10---10--10--10---10--11--|-12---12--12--12----3-----5-----|
E|-----------------------------------------------------|--------------------------------|

E|--------------------------------------------------------|--------------------------------------------------------|
B|--------------------------------------------------------|--------------------------------------------------------|
G|--------------------------------------------------------|--------------------------------------------------------|
D|-9----9---9---9----9---9---9----9---9---9---------------|-9----9---9---9----9---9---9----9---9---9---------------|
A|-7----7---7---7----7---7---7----7---7---7---5-------5---|-7----7---7---7----7---7---7----7---7---7---5-------5---|
E|------------------------------------------------7-------|------------------------------------------------7-------|

E|-----------------------------------------------------|--------------------------------|
B|-----------------------------------------------------|--------------------------------|
G|-----------------------------------------------------|--------------------------------|
D|-12---12--12--12---12--12--12---12--12--12---12--13--|-14---14--14--14----5-----7-----|
A|-10---10--10--10---10--10--10---10--10--10---10--11--|-12---12--12--12----3-----5-----|
E|-----------------------------------------------------|--------------------------------|

E|--------------------------------------------------|------------------------------------10--10--------|
B|------------------------------------12--12--------|------12--10--12----10--12--10--12-----------12---|
G|-%----12--11--12----11--12--11--12-----------12---|-12-----------------------------------------------|
D|-%------------------------------------------------|--------------------------------------------------|
A|--------------------------------------------------|--------------------------------------------------|
E|--------------------------------------------------|--------------------------------------------------|

E|--------------------------------------------------|--------------------------------------------------|
B|-12---12--10--12----10--12--10--12--10--10--------|--------------------12---10--------10---12---10---|
G|---------------------------------------------12---|-12---12--11--12--------------12------------------|
D|--------------------------------------------------|--------------------------------------------------|
A|--------------------------------------------------|--------------------------------------------------|
E|--------------------------------------------------|--------------------------------------------------|

E|--------------------------------------------------|------------------------------------10--10--------|
B|------------------------------------12--12--------|------12--10--12----10--12--10--12-----------12---|
G|-12---12--11--12----11--12--11--12-----------12---|-12-----------------------------------------------|
D|--------------------------------------------------|--------------------------------------------------|
A|--------------------------------------------------|--------------------------------------------------|
E|--------------------------------------------------|--------------------------------------------------|

E|--------------------------------------------------|--------------------------------------------------|
B|-12---12--10--12----10--12--10--12--10--10--------|--------------------12---10--------10---12---10---|
G|---------------------------------------------12---|-12---12--11--12--------------12------------------|
D|--------------------------------------------------|--------------------------------------------------|
A|--------------------------------------------------|--------------------------------------------------|
E|--------------------------------------------------|--------------------------------------------------|

E|-------12--------------------|------------------------------------------------------------------12--12--|
B|-15----------15---15----15---|-15--15------15--13--15--13--12--13--12---------------12--14--15----------|
G|-----------------------------|---------12------------------------------14---14--14----------------------|
D|-----------------------------|--------------------------------------------------------------------------|
A|-----------------------------|--------------------------------------------------------------------------|
E|-----------------------------|--------------------------------------------------------------------------|

E|-12---12---12----12------12----------------12--|---------------------------------------------------------------------------|
B|---------------------15------12---12---15------|-15--17--15--14--15--14--12--10--12--10--8---------------------------------|
G|-----------------------------------------------|---------------------------------------------14--12------12---12-----------|
D|-----------------------------------------------|-----------------------------------------------------14--------------------|
A|-----------------------------------------------|-------------------------------------------------------------------14--14--|
E|-----------------------------------------------|---------------------------------------------------------------------------|

E|------------------------------------------------------7-----|-11--12--14--12--11--12--11--------------------------------------------|
B|---------7--------------------------------------------------|-----------------------------13--16--13--12-13-12-11-13---13---13--15--|
G|-8---9-------9---8---9---8-------8--------------------------|-----------------------------------------------------------------------|
D|-----------------------------10------10--9---10--9----------|-----------------------------------------------------------------------|
A|------------------------------------------------------------|-----------------------------------------------------------------------|
E|------------------------------------------------------------|-----------------------------------------------------------------------|

E|------14---12--------12---------------------------|----------------------------------------------------------------------|
B|-15-------------15--------12---12-----------------|-------------12----------12-------------------------------------------|
G|-------------------------------------12--14--14---|-14--14--12------14--12------12--11--12--11--12--11------11--12--14---|
D|--------------------------------------------------|-----------------------------------------------------12---------------|
A|--------------------------------------------------|----------------------------------------------------------------------|
E|--------------------------------------------------|----------------------------------------------------------------------|

E|-------------------------|-------------------------|-------------------------|-----------------------------------|
B|-------------------------|-------------------------|-------------------------|-----------------------------------|
G|---------%---------------|---------%---------------|---------%---------------|---------%-------------------------|
D|-9---9---%---9---9-------|-9---9---%---9---9-------|-12--12--%---12--12------|-14--14--%---14--14----5-----7-----|
A|-7---7-------7---7-------|-7---7-------7---7-------|-10--10------10--10------|-12--12------12--12----3-----5-----|
E|-------------------------|-------------------------|-------------------------|-----------------------------------|

E|-------------------------|-------------------------|-------------------------|-----------------------------------|
B|-------------------------|-------------------------|-------------------------|-----------------------------------|
G|---------%---------------|---------%---------------|---------%---------------|---------%-------------------------|
D|-9---9---%---9---9-------|-9---9---%---9---9-------|-12--12--%---12--12------|-14--14--%---14--14----5-----7-----|
A|-7---7-------7---7-------|-7---7-------7---7-------|-10--10------10--10------|-12--12------12--12----3-----5-----|
E|-------------------------|-------------------------|-------------------------|-----------------------------------|

E|--------------------------------------------------|------------------------------------10--10--------|
B|------------------------------------12--12--------|------12--10--12----10--12--10--12-----------12---|
G|-%----12--11--12----11--12--11--12-----------12---|-12-----------------------------------------------|
D|-%------------------------------------------------|--------------------------------------------------|
A|--------------------------------------------------|--------------------------------------------------|
E|--------------------------------------------------|--------------------------------------------------|

E|--------------------------------------------------|--------------------------------------------------|
B|-12---12--10--12----10--12--10--12--10--10--------|--------------------12---10--------10---12---10---|
G|---------------------------------------------12---|-12---12--11--12--------------12------------------|
D|--------------------------------------------------|--------------------------------------------------|
A|--------------------------------------------------|--------------------------------------------------|
E|--------------------------------------------------|--------------------------------------------------|

E|--------------------------------------------------|------------------------------------10--10--------|
B|------------------------------------12--12--------|------12--10--12----10--12--10--12-----------12---|
G|-12---12--11--12----11--12--11--12-----------12---|-12-----------------------------------------------|
D|--------------------------------------------------|--------------------------------------------------|
A|--------------------------------------------------|--------------------------------------------------|
E|--------------------------------------------------|--------------------------------------------------|

E|--------------------------------------------------|--------------------------------------------------|
B|-12---12--10--12----10--12--10--12--10--10--------|--------------------12---10--------10---12---10---|
G|---------------------------------------------12---|-12---12--11--12--------------12------------------|
D|--------------------------------------------------|--------------------------------------------------|
A|--------------------------------------------------|--------------------------------------------------|
E|--------------------------------------------------|--------------------------------------------------|

E|--------------------------------------------------------|--------------------------------------------------------|
B|--------------------------------------------------------|--------------------------------------------------------|
G|--------------------------------------------------------|--------------------------------------------------------|
D|-9----9---9---9----9---9---9----9---9---9---------------|-9----9---9---9----9---9---9----9---9---9---------------|
A|-7----7---7---7----7---7---7----7---7---7---5-------5---|-7----7---7---7----7---7---7----7---7---7---5-------5---|
E|------------------------------------------------7-------|------------------------------------------------7-------|

E|-----------------------------------------------------|--------------------------------|
B|-----------------------------------------------------|--------------------------------|
G|-----------------------------------------------------|--------------------------------|
D|-12---12--12--12---12--12--12---12--12--12---12--13--|-14---14--14--14----5-----7-----|
A|-10---10--10--10---10--10--10---10--10--10---10--11--|-12---12--12--12----3-----5-----|
E|-----------------------------------------------------|--------------------------------|

E|--------------------------------------------------------|--------------------------------------------------------|
B|--------------------------------------------------------|--------------------------------------------------------|
G|--------------------------------------------------------|--------------------------------------------------------|
D|-9----9---9---9----9---9---9----9---9---9---------------|-9----9---9---9----9---9---9----9---9---9---------------|
A|-7----7---7---7----7---7---7----7---7---7---5-------5---|-7----7---7---7----7---7---7----7---7---7---5-------5---|
E|------------------------------------------------7-------|------------------------------------------------7-------|

E|-----------------------------------------------------|--------------------------------|
B|-----------------------------------------------------|--------------------------------|
G|-----------------------------------------------------|--------------------------------|
D|-12---12--12--12---12--12--12---12--12--12---12--13--|-14---14--14--14----5-----7-----|
A|-10---10--10--10---10--10--10---10--10--10---10--11--|-12---12--12--12----3-----5-----|
E|-----------------------------------------------------|--------------------------------|

E|-------------------------------------|-------------------------------------|-------------------------------------------------------------|
B|-------------------------------------|-------------------------------------|-------------------------------------------------------------|
G|-9-----9-----%-----4-----4-----%-----|-5-----5-----%-----7-----7-----7-----|-------------------------------------------------------------|
D|-9-----9-----%-----4-----4-----%-----|-5-----5-----%-----7-----7-----7-----|-------------------------------------------------------------|
A|-7-----7-----------2-----2-----------|-3-----3-----------5-----5-----5-----|-7----7----7----10---7----7----7----7----7----10---7----7----|
E|-------------------------------------|-------------------------------------|-------------------------------------------------------------|

E|-------------------------------------------------|-------------------------------------------------------------|
B|-------------------------------------------------|-------------------------------------------------------------|
G|-------------------------------7-----7-----7-----|-------------------------------------------------------------|
D|-------------------------------7-----7-----7-----|-------------------------------------------------------------|
A|-7----7----7----10---7----7----5-----5-----5-----|-7----7----7----10---7----7----7----7----7----10---7----7----|
E|-------------------------------------------------|-------------------------------------------------------------|

E|-------------------------------------------------|-------------------------------------|
B|-------------------------------------------------|-------------------------------------|
G|-------------------------------7-----7-----7-----|-9-----9-----%-----4-----4-----%-----|
D|-------------------------------7-----7-----7-----|-9-----9-----%-----4-----4-----%-----|
A|-7----7----7----10---7----7----5-----5-----5-----|-7-----7-----------2-----2-----------|
E|-------------------------------------------------|-------------------------------------|

E|-------------------------------------|-------------------------------------------------------------|
B|-------------------------------------|-------------------------------------------------------------|
G|-5-----5-----%-----7-----7-----7-----|-------------------------------------------------------------|
D|-5-----5-----%-----7-----7-----7-----|-------------------------------------------------------------|
A|-3-----3-----------5-----5-----5-----|-7----7----7----10---7----7----7----7----7----10---7----7----|
E|-------------------------------------|-------------------------------------------------------------|

E|-------------------------------------------------|-------------------------------------------------------------|
B|-------------------------------------------------|-------------------------------------------------------------|
G|-------------------------------7-----7-----7-----|-------------------------------------------------------------|
D|-------------------------------7-----7-----7-----|-------------------------------------------------------------|
A|-7----7----7----10---7----7----5-----5-----5-----|-7----7----7----10---7----7----7----7----7----10---7----7----|
E|-------------------------------------------------|-------------------------------------------------------------|

E|-------------------------------------------------------------|-------------------------------------------------|
B|-------------------------------------------------------------|-------------------------------------------------|
G|-------------------------------7----7----7----7--------------|-4----4----4----5----4---------7-----4-----------|
D|-------------------------------7----7----7----7----4----5----|--------------------------5----------------5-----|
A|-7----7----7----10---7----7----5----5----5----5--------------|-------------------------------------------------|
E|-------------------------------------------------------------|-------------------------------------------------|

E|-------------------------------------|-------------------------------------------------------------|
B|-------------------------------------|-------------------------------------------------------------|
G|-5-----4-----------------------------|-------------------------------------------------------------|
D|-------------5-----4-----5-----7-----|-------------------------------------------------------------|
A|-------------------------------------|-7----7----7----10---7----7----7----7----7----10---7----7----|
E|-------------------------------------|-------------------------------------------------------------|

E|-------------------------------------------------|-------------------------------------------------------------|
B|-------------------------------------------------|-------------------------------------------------------------|
G|-------------------------------7-----7-----7-----|-------------------------------------------------------------|
D|-------------------------------7-----7-----7-----|-------------------------------------------------------------|
A|-7----7----7----10---7----7----5-----5-----5-----|-7----7----7----10---7----7----7----7----7----10---7----7----|
E|-------------------------------------------------|-------------------------------------------------------------|

E|-------------------------------------------------------------|-------------------------------------------------|
B|-------------------------------------------------------------|-------------------------------------------------|
G|-------------------------------7----7----7----7--------------|-4----4----4----5----4---------7-----4-----------|
D|-------------------------------7----7----7----7----4----5----|--------------------------5----------------5-----|
A|-7----7----7----10---7----7----5----5----5----5--------------|-------------------------------------------------|
E|-------------------------------------------------------------|-------------------------------------------------|

E|-------------------------------------|-------------------------------------------------------------|
B|-------------------------------------|-------------------------------------------------------------|
G|-5-----4-----------------------------|-------------------------------------------------------------|
D|-------------5-----4-----5-----7-----|-------------------------------------------------------------|
A|-------------------------------------|-7----7----7----10---7----7----7----7----7----10---7----7----|
E|-------------------------------------|-------------------------------------------------------------|

E|-------------------------------------------------|-------------------------------------------------------------|
B|-------------------------------------------------|-------------------------------------------------------------|
G|-------------------------------7-----7-----7-----|-------------------------------------------------------------|
D|-------------------------------7-----7-----7-----|-------------------------------------------------------------|
A|-7----7----7----10---7----7----5-----5-----5-----|-7----7----7----10---7----7----7----7----7----10---7----7----|
E|-------------------------------------------------|-------------------------------------------------------------|

E|-------------------------------------------------|-------------------------------------|
B|-------------------------------------------------|-------------------------------------|
G|-------------------------------7-----7-----7-----|-9-----9-----%-----4-----4-----%-----|
D|-------------------------------7-----7-----7-----|-9-----9-----%-----4-----4-----%-----|
A|-7----7----7----10---7----7----5-----5-----5-----|-7-----7-----------2-----2-----------|
E|-------------------------------------------------|-------------------------------------|

E|-------------------------------------|-------------------------------------------------------------|
B|-------------------------------------|-------------------------------------------------------------|
G|-5-----5-----%-----7-----7-----7-----|-------------------------------------------------------------|
D|-5-----5-----%-----7-----7-----7-----|-------------------------------------------------------------|
A|-3-----3-----------5-----5-----5-----|-7----7----7----10---7----7----7----7----7----10---7----7----|
E|-------------------------------------|-------------------------------------------------------------|

E|-------------------------------------------------|-------------------------------------------------------------|
B|-------------------------------------------------|-------------------------------------------------------------|
G|-------------------------------7-----7-----7-----|-------------------------------------------------------------|
D|-------------------------------7-----7-----7-----|-------------------------------------------------------------|
A|-7----7----7----10---7----7----5-----5-----5-----|-7----7----7----10---7----7----7----7----7----10---7----7----|
E|-------------------------------------------------|-------------------------------------------------------------|

E|-------------------------------------------------|-------------------------------------|
B|-------------------------------------------------|-------------------------------------|
G|-------------------------------7-----7-----7-----|-9-----9-----%-----4-----4-----%-----|
D|-------------------------------7-----7-----7-----|-9-----9-----%-----4-----4-----%-----|
A|-7----7----7----10---7----7----5-----5-----5-----|-7-----7-----------2-----2-----------|
E|-------------------------------------------------|-------------------------------------|

E|-------------------------------------|--------------------|---------|
B|-------------------------------------|--------------------|---------|
G|-5-----5-----%-----7-----7-----7-----|-------%-----%------|-%-------|
D|-5-----5-----%-----7-----7-----7-----|-9-----%-----%------|-%-------|
A|-3-----3-----------5-----5-----5-----|-7------------------|---------|
E|-------------------------------------|--------------------|---------|
Iron Maiden - Phantom Of The Opera (4)
Iron Maiden - Phantom Of The Opera (4).gp4