Iron Maiden - Powerslave (2)

Iron Maiden - Powerslave (2)

Iron Maiden



Title: Powerslave
Album: Powerslave
Artist: Iron Maiden
Author: 

Track 1: Guitar 1
E|---------|--------------------------------------------------|--------------------------------------------------|
B|---------|--------------------------------------------------|--------------------------------------------------|
G|-%-------|--------------------------------------------------|--------------------------------------------------|
D|-%-------|--------------------------------------------------|--------------------------------------------------|
A|---------|-7------------------------------------------10----|-7------------------------------------------8-----|
E|---------|-5----5---5---5----5---5---5----5---5---5---8-----|-5----5---5---5----5---5---5----5---5---5---6-----|

E|-----------------------------------------------------|-------------------------------------------------------|
B|-----------------------------------------------------|-------------------------------------------------------|
G|-----------------------------------------------------|-------------------------------------------------------|
D|-----------------------------------------------------|-------------------------------------------------------|
A|-7----------------------------------------------10---|------5----4----5----7----5---7---5---4---5---4--------|
E|-5----5---5---5----5---5---5----5---5---5---5---8----|-5------------------------------------------------6----|

E|--------------------------------------------------|--------------------------------------------------|
B|--------------------------------------------------|--------------------------------------------------|
G|--------------------------------------------------|--------------------------------------------------|
D|--------------------------------------------------|--------------------------------------------------|
A|-7------------------------------------------10----|-7------------------------------------------8-----|
E|-5----5---5---5----5---5---5----5---5---5---8-----|-5----5---5---5----5---5---5----5---5---5---6-----|

E|-----------------------------------------------------|-------------------------------------------------------|
B|-----------------------------------------------------|-------------------------------------------------------|
G|-----------------------------------------------------|-------------------------------------------------------|
D|-----------------------------------------------------|-------------------------------------------------------|
A|-7----------------------------------------------10---|------5----4----5----7----5---7---5---4---5---4--------|
E|-5----5---5---5----5---5---5----5---5---5---5---8----|-5------------------------------------------------6----|

E|--------------------------------------------------|--------------------------------------------------|
B|--------------------------------------------------|--------------------------------------------------|
G|--------------------------------------------------|--------------------------------------------------|
D|--------------------------------------------------|--------------------------------------------------|
A|-7------------------------------------------10----|-7------------------------------------------8-----|
E|-5----5---5---5----5---5---5----5---5---5---8-----|-5----5---5---5----5---5---5----5---5---5---6-----|

E|-----------------------------------------------------|-------------------------------------------------------|
B|-----------------------------------------------------|-------------------------------------------------------|
G|-----------------------------------------------------|-------------------------------------------------------|
D|-----------------------------------------------------|-------------------------------------------------------|
A|-7----------------------------------------------10---|------5----4----5----7----5---7---5---4---5---4--------|
E|-5----5---5---5----5---5---5----5---5---5---5---8----|-5------------------------------------------------6----|

E|--------------------------------------------------|--------------------------------------------------|
B|--------------------------------------------------|--------------------------------------------------|
G|--------------------------------------------------|--------------------------------------------------|
D|--------------------------------------------------|--------------------------------------------------|
A|-7------------------------------------------10----|-7------------------------------------------8-----|
E|-5----5---5---5----5---5---5----5---5---5---8-----|-5----5---5---5----5---5---5----5---5---5---6-----|

E|--------------------------------------------------|-------------------------------------------------------|
B|--------------------------------------------------|-------------------------------------------------------|
G|--------------------------------------------------|-------------------------------------------------------|
D|--------------------------------------------------|-------------------------------------------------------|
A|-7------------------------------------------10----|------5----4----5----7----5---7---5---4---5---4--------|
E|-5----5---5---5----5---5---5----5---5---5---8-----|-5------------------------------------------------6----|

E|--------------------------------------------------|--------------------------------------------------|
B|--------------------------------------------------|--------------------------------------------------|
G|--------------------------------------------------|--------------------------------------------------|
D|--------------------------------------------------|--------------------------------------------------|
A|-7------------------------------------------10----|-7------------------------------------------8-----|
E|-5----5---5---5----5---5---5----5---5---5---8-----|-5----5---5---5----5---5---5----5---5---5---6-----|

E|--------------------------------------------------|-------------------------------------------------------|
B|--------------------------------------------------|-------------------------------------------------------|
G|--------------------------------------------------|-------------------------------------------------------|
D|--------------------------------------------------|-------------------------------------------------------|
A|-7------------------------------------------10----|------5----4----5----7----5---7---5---4---5---4--------|
E|-5----5---5---5----5---5---5----5---5---5---8-----|-5------------------------------------------------6----|

E|---------------|-----------------------------|---------------|-----------------------------|
B|---------------|-----------------------------|---------------|-----------------------------|
G|---------------|-----------------------------|---------------|-----------------------------|
D|-2-------10----|-6----7----6-----6-----3-----|-2-------10----|-6----7----6-----6-----3-----|
A|---------------|-----------------------------|---------------|-----------------------------|
E|---------------|-----------------------------|---------------|-----------------------------|

E|---------------|-----------------------------|---------------|-----------------------------|
B|---------------|-----------------------------|---------------|-----------------------------|
G|---------------|-----------------------------|---------------|-----------------------------|
D|-2-------10----|-6----7----6-----6-----3-----|-2-------10----|-6----7----6-----6-----3-----|
A|---------------|-----------------------------|---------------|-----------------------------|
E|---------------|-----------------------------|---------------|-----------------------------|

E|---------|---------------|-----------------------------------------------------------|
B|---------|---------------|-----------------------------------------------------------|
G|-9-------|-5------7------|-----------------------------------------------------------|
D|-9-------|-5------7------|-----------------------------------------------------------|
A|-7-------|-3------5------|-----------------------------------------------------------|
E|---------|---------------|-3---0---0---0---0----0---0---3---0---0---0---0----0---0---|

E|-----------------------------------------------------------------|---------|---------------|
B|-----------------------------------------------------------------|---------|---------------|
G|-----------------------------------------------------------------|-9-------|-5------7------|
D|-----------------------------------------------------------------|-9-------|-5------7------|
A|-----------------------------------------------------------------|-7-------|-3------5------|
E|-0---2---2---2---2---3---3---3---3---5---5---5---5---3---2---0---|---------|---------------|

E|-----------------------------------------------------------|-----------------------------------------------------------------|
B|-----------------------------------------------------------|-----------------------------------------------------------------|
G|-----------------------------------------------------------|-----------------------------------------------------------------|
D|-----------------------------------------------------------|-----------------------------------------------------------------|
A|-----------------------------------------------------------|-----------------------------------------------------------------|
E|-3---0---0---0---0----0---0---3---0---0---0---0----0---0---|-0---2---2---2---2---3---3---3---3---5---5---5---5---3---2---0---|

E|---------|---------------|-----------------------------------------------------------|
B|---------|---------------|-----------------------------------------------------------|
G|-9-------|-5------7------|-----------------------------------------------------------|
D|-9-------|-5------7------|-----------------------------------------------------------|
A|-7-------|-3------5------|-----------------------------------------------------------|
E|---------|---------------|-3---0---0---0---0----0---0---3---0---0---0---0----0---0---|

E|-----------------------------------------------------------------|---------|---------------|
B|-----------------------------------------------------------------|---------|---------------|
G|-----------------------------------------------------------------|-9-------|-5------7------|
D|-----------------------------------------------------------------|-9-------|-5------7------|
A|-----------------------------------------------------------------|-7-------|-3------5------|
E|-0---2---2---2---2---3---3---3---3---5---5---5---5---3---2---0---|---------|---------------|

E|-----------------------------------------------------------|-----------------------------------------------------------|
B|-----------------------------------------------------------|-----------------------------------------------------------|
G|-----------------------------------------------------------|-----------------------------------------------------------|
D|-----------------------------------------------------------|-----------------------------------------------------------|
A|-----------------------------------------------------------|-----------------------------------------------------------|
E|-3---0---0---0---0----0---0---3---0---0---0---0----0---0---|-0---2---2---2---2---3---3---3---3---5---5---5---5-----3---|

E|--------------------------------------------------|--------------------------------------------------|
B|--------------------------------------------------|--------------------------------------------------|
G|--------------------------------------------------|--------------------------------------------------|
D|--------------------------------------------------|--------------------------------------------------|
A|-7------------------------------------------10----|-7------------------------------------------8-----|
E|-5----5---5---5----5---5---5----5---5---5---8-----|-5----5---5---5----5---5---5----5---5---5---6-----|

E|-----------------------------------------------------|-------------------------------------------------------|
B|-----------------------------------------------------|-------------------------------------------------------|
G|-----------------------------------------------------|-------------------------------------------------------|
D|-----------------------------------------------------|-------------------------------------------------------|
A|-7----------------------------------------------10---|------5----4----5----7----5---7---5---4---5---4--------|
E|-5----5---5---5----5---5---5----5---5---5---5---8----|-5------------------------------------------------6----|

E|--------------------------------------------------|--------------------------------------------------|
B|--------------------------------------------------|--------------------------------------------------|
G|--------------------------------------------------|--------------------------------------------------|
D|--------------------------------------------------|--------------------------------------------------|
A|-7------------------------------------------10----|-7------------------------------------------8-----|
E|-5----5---5---5----5---5---5----5---5---5---8-----|-5----5---5---5----5---5---5----5---5---5---6-----|

E|-----------------------------------------------------|-------------------------------------------------------|
B|-----------------------------------------------------|-------------------------------------------------------|
G|-----------------------------------------------------|-------------------------------------------------------|
D|-----------------------------------------------------|-------------------------------------------------------|
A|-7----------------------------------------------10---|------5----4----5----7----5---7---5---4---5---4--------|
E|-5----5---5---5----5---5---5----5---5---5---5---8----|-5------------------------------------------------6----|

E|--------------------------------------------------|--------------------------------------------------|
B|--------------------------------------------------|--------------------------------------------------|
G|--------------------------------------------------|--------------------------------------------------|
D|--------------------------------------------------|--------------------------------------------------|
A|-7------------------------------------------10----|-7------------------------------------------8-----|
E|-5----5---5---5----5---5---5----5---5---5---8-----|-5----5---5---5----5---5---5----5---5---5---6-----|

E|--------------------------------------------------|-------------------------------------------------------|
B|--------------------------------------------------|-------------------------------------------------------|
G|--------------------------------------------------|-------------------------------------------------------|
D|--------------------------------------------------|-------------------------------------------------------|
A|-7------------------------------------------10----|------5----4----5----7----5---7---5---4---5---4--------|
E|-5----5---5---5----5---5---5----5---5---5---8-----|-5------------------------------------------------6----|

E|--------------------------------------------------|--------------------------------------------------|
B|--------------------------------------------------|--------------------------------------------------|
G|--------------------------------------------------|--------------------------------------------------|
D|--------------------------------------------------|--------------------------------------------------|
A|-7------------------------------------------10----|-7------------------------------------------8-----|
E|-5----5---5---5----5---5---5----5---5---5---8-----|-5----5---5---5----5---5---5----5---5---5---6-----|

E|-----------------------------------------------------|-------------------------------------------------------|
B|-----------------------------------------------------|-------------------------------------------------------|
G|-----------------------------------------------------|-------------------------------------------------------|
D|-----------------------------------------------------|-------------------------------------------------------|
A|-7----------------------------------------------10---|------5----4----5----7----5---7---5---4---5---4--------|
E|-5----5---5---5----5---5---5----5---5---5---5---8----|-5------------------------------------------------6----|

E|--------------------------------------------------|--------------------------------------------------|
B|--------------------------------------------------|--------------------------------------------------|
G|--------------------------------------------------|--------------------------------------------------|
D|--------------------------------------------------|--------------------------------------------------|
A|-7------------------------------------------10----|-7------------------------------------------8-----|
E|-5----5---5---5----5---5---5----5---5---5---8-----|-5----5---5---5----5---5---5----5---5---5---6-----|

E|-----------------------------------------------------|-------------------------------------------------------|
B|-----------------------------------------------------|-------------------------------------------------------|
G|-----------------------------------------------------|-------------------------------------------------------|
D|-----------------------------------------------------|-------------------------------------------------------|
A|-7----------------------------------------------10---|------5----4----5----7----5---7---5---4---5---4--------|
E|-5----5---5---5----5---5---5----5---5---5---5---8----|-5------------------------------------------------6----|

E|---------------|-----------------------------|---------------|-----------------------------|
B|---------------|-----------------------------|---------------|-----------------------------|
G|---------------|-----------------------------|---------------|-----------------------------|
D|-2-------10----|-6----7----6-----6-----3-----|-2-------10----|-6----7----6-----6-----3-----|
A|---------------|-----------------------------|---------------|-----------------------------|
E|---------------|-----------------------------|---------------|-----------------------------|

E|---------------|-----------------------------|---------------|-----------------------------|
B|---------------|-----------------------------|---------------|-----------------------------|
G|---------------|-----------------------------|---------------|-----------------------------|
D|-2-------10----|-6----7----6-----6-----3-----|-2-------10----|-9----10---9-----9-----3-----|
A|---------------|-----------------------------|---------------|-----------------------------|
E|---------------|-----------------------------|---------------|-----------------------------|

E|---------|---------------|-----------------------------------------------------------|
B|---------|---------------|-----------------------------------------------------------|
G|-9-------|-5------7------|-----------------------------------------------------------|
D|-9-------|-5------7------|-----------------------------------------------------------|
A|-7-------|-3------5------|-----------------------------------------------------------|
E|---------|---------------|-3---0---0---0---0----0---0---3---0---0---0---0----0---0---|

E|-----------------------------------------------------------------|---------|---------------|
B|-----------------------------------------------------------------|---------|---------------|
G|-----------------------------------------------------------------|-9-------|-5------7------|
D|-----------------------------------------------------------------|-9-------|-5------7------|
A|-----------------------------------------------------------------|-7-------|-3------5------|
E|-0---2---2---2---2---3---3---3---3---5---5---5---5---3---2---0---|---------|---------------|

E|-----------------------------------------------------------|-----------------------------------------------------------------|
B|-----------------------------------------------------------|-----------------------------------------------------------------|
G|-----------------------------------------------------------|-----------------------------------------------------------------|
D|-----------------------------------------------------------|-----------------------------------------------------------------|
A|-----------------------------------------------------------|-----------------------------------------------------------------|
E|-3---0---0---0---0----0---0---3---0---0---0---0----0---0---|-0---2---2---2---2---3---3---3---3---5---5---5---5---3---2---0---|

E|---------|---------------|-----------------------------------------------------------|
B|---------|---------------|-----------------------------------------------------------|
G|-9-------|-5------7------|-----------------------------------------------------------|
D|-9-------|-5------7------|-----------------------------------------------------------|
A|-7-------|-3------5------|-----------------------------------------------------------|
E|---------|---------------|-3---0---0---0---0----0---0---3---0---0---0---0----0---0---|

E|-----------------------------------------------------------------|---------|---------------|
B|-----------------------------------------------------------------|---------|---------------|
G|-----------------------------------------------------------------|-9-------|-5------7------|
D|-----------------------------------------------------------------|-9-------|-5------7------|
A|-----------------------------------------------------------------|-7-------|-3------5------|
E|-0---2---2---2---2---3---3---3---3---5---5---5---5---3---2---0---|---------|---------------|

E|-----------------------------------------------------------|-----------------------------------------------------------------|
B|-----------------------------------------------------------|-----------------------------------------------------------------|
G|-----------------------------------------------------------|-----------------------------------------------------------------|
D|-----------------------------------------------------------|-----------------------------------------------------------------|
A|-----------------------------------------------------------|-----------------------------------------------------------------|
E|-3---0---0---0---0----0---0---3---0---0---0---0----0---0---|-0---2---2---2---2---3---3---3---3---5---5---5---5---3---2---0---|

E|-0-------|---------|-----------------------------------------|---------------------------------|
B|-0-------|---------|-----------3-------------------3---------|-----------3---------------------|
G|-0-------|-%-------|----------------4-------------------4----|----------------4----------------|
D|-2-------|-%-------|------4-------------------4--------------|------4--------------------------|
A|-2-------|---------|-2-------------------2-------------------|-2-------------------2-----0-----|
E|-0-------|---------|-----------------------------------------|---------------------------------|

E|-----------------------------------------|---------------------------------|-----------------------------------------|
B|-----------3-------------------3---------|-----------3---------------------|-----------3-------------------3---------|
G|----------------4-------------------4----|----------------4----------------|----------------4-------------------4----|
D|------4-------------------4--------------|------4--------------------------|------4-------------------4--------------|
A|-2-------------------2-------------------|-2-------------------2-----0-----|-2-------------------2-------------------|
E|-----------------------------------------|---------------------------------|-----------------------------------------|

E|-----------------------------------------|-----------------------------------------|
B|-----------3-------------------3---------|-----------3-------------------3---------|
G|----------------4-------------------4----|----------------4-------------------4----|
D|------4-------------------4--------------|------4-------------------4--------------|
A|-2-------------------2-------------------|-2-------------------2-------------------|
E|-----------------------------------------|-----------------------------------------|

E|-----------------------------------------|-----------------------------------------|
B|-----------3-------------------3---------|-----------3-------------------3---------|
G|----------------4-------------------4----|----------------4-------------------4----|
D|------4-------------------4--------------|------4-------------------4--------------|
A|-2-------------------2-------------------|-2-------------------2-------------------|
E|-----------------------------------------|-----------------------------------------|

E|-----------------------------------------|-----------------------------------------|
B|-----------3-------------------3---------|-----------3-------------------3---------|
G|----------------4-------------------4----|----------------4-------------------4----|
D|------4-------------------4--------------|------4-------------------4--------------|
A|-2-------------------2-------------------|-2-------------------2-------------------|
E|-----------------------------------------|-----------------------------------------|

E|-----------------------------------------|-----------------------------------------|
B|-----------3-------------------3---------|-----------3-------------------3---------|
G|----------------4-------------------4----|----------------4-------------------4----|
D|------4-------------------4--------------|------4-------------------4--------------|
A|-2-------------------2-------------------|-2-------------------2-------------------|
E|-----------------------------------------|-----------------------------------------|

E|-----------------------------------------|-----------------------------------------|
B|-----------3-------------------3---------|-----------3-------------------3---------|
G|----------------4-------------------4----|----------------4-------------------4----|
D|------4-------------------4--------------|------4-------------------4--------------|
A|-2-------------------2-------------------|-2-------------------2-------------------|
E|-----------------------------------------|-----------------------------------------|

E|-----------------------------------------|-----------------------------------------|
B|-----------3-------------------3---------|-----------3-------------------3---------|
G|----------------4-------------------4----|----------------4-------------------4----|
D|------4-------------------4--------------|------4-------------------4--------------|
A|-2-------------------2-------------------|-2-------------------2-------------------|
E|-----------------------------------------|-----------------------------------------|

E|-----------------------------------------|-----------------------------------------|
B|-----------3-------------------3---------|-----------3-------------------3---------|
G|----------------4---------4---------4----|----------------4-------------------4----|
D|------4----------------------------------|------4-------------------4--------------|
A|-0-------------------0-------------------|-----------------------------------------|
E|-----------------------------------------|-3-------------------3-------------------|

E|-----------------------------------------|-----------------------------------------|
B|-----------3-----------------------------|-----------3-------------------3---------|
G|----------------4---------4---------4----|----------------4-------------------4----|
D|------4--------------0-------------------|------4-------------------4--------------|
A|-------------------------------0---------|-2-------------------2-------------------|
E|-3---------------------------------------|-----------------------------------------|

E|-----------------------------------------|-----------------------------------------|
B|-----------3-------------------3---------|-----------3-------------------3---------|
G|----------------4---------4---------4----|----------------4-------------------4----|
D|------4----------------------------------|------4-------------------4--------------|
A|-0-------------------0-------------------|-----------------------------------------|
E|-----------------------------------------|-3-------------------3-------------------|

E|-----------------------------------------|-----------------------------------------|
B|-----------3-----------------------------|-----------3-------------------3---------|
G|----------------4---------4---------4----|----------------4-------------------4----|
D|------4--------------0-------------------|------4-------------------4--------------|
A|-------------------------------0---------|-2-------------------2-------------------|
E|-3---------------------------------------|-----------------------------------------|

E|-----------------------------------------|-----------------------------------------|
B|-----------3-------------------3---------|-----------3-------------------3---------|
G|----------------4---------4---------4----|----------------4-------------------4----|
D|------4----------------------------------|------4-------------------4--------------|
A|-0-------------------0-------------------|-----------------------------------------|
E|-----------------------------------------|-3-------------------3-------------------|

E|-----------------------------------------|-----------------------------------------|
B|-----------3-----------------------------|-----------3-------------------3---------|
G|----------------4---------4---------4----|----------------4-------------------4----|
D|------4--------------0-------------------|------4-------------------4--------------|
A|-------------------------------0---------|-2-------------------2-------------------|
E|-3---------------------------------------|-----------------------------------------|

E|-----------------------------------------|-----------------------------------------|
B|-----------3-------------------3---------|-----------------------------------------|
G|----------------4---------4---------4----|-----------------------------------------|
D|------4----------------------------------|-----------------------------------------|
A|-0-------------------0-------------------|-5----5----5----5----5----5----5----5----|
E|-----------------------------------------|-3----3----3----3----3----3----3----3----|

E|-------------------------------------|----------------------------|-------------------------------------|
B|-------------------------------------|----------------------------|-------------------------------------|
G|-------------------------------------|----------------------------|-------------------------------------|
D|-------------------------------------|-4---------4-----------4----|-4---------4----------4----4---------|
A|-5----5----5----5----7----5----X-----|-2----0----2------0----2----|-2----0----2-----0----2----2----0----|
E|-3----3----3----3----5----3----X-----|----------------------------|-------------------------------------|

E|----------------------------|-------------------------------------|----------------------------|
B|----------------------------|-------------------------------------|----------------------------|
G|--------7---7---7------2----|-2---------2----------2----2----2----|----------------------------|
D|-5------7---7---7------2----|-2---------2----------2----2----2----|-4---------4-----------4----|
A|-5------5---5---5------0----|-0---------0----------0----0----0----|-2----0----2------0----2----|
E|-3--------------------------|------3----------3-------------------|----------------------------|

E|-------------------------------------|----------------------------|-------------------------------------|
B|-------------------------------------|----------------------------|-------------------------------------|
G|-------------------------------------|--------7---7---7------2----|-2---------2----------2----2----2----|
D|-4---------4----------4----4---------|-5------7---7---7------2----|-2---------2----------2----2----2----|
A|-2----0----2-----0----2----2----0----|-5------5---5---5------0----|-0---------0----------0----0----0----|
E|-------------------------------------|-3--------------------------|------3----------3-------------------|

E|----------------------------|-------------------------------------|----------------------------|
B|----------------------------|-------------------------------------|----------------------------|
G|----------------------------|-------------------------------------|--------7---7---7------2----|
D|-4---------4-----------4----|-4---------4----------4----4---------|-5------7---7---7------2----|
A|-2----0----2------0----2----|-2----0----2-----0----2----2----0----|-5------5---5---5------0----|
E|----------------------------|-------------------------------------|-3--------------------------|

E|-------------------------------------|----------------------------|-------------------------------------|
B|-------------------------------------|----------------------------|-------------------------------------|
G|-2---------2----------2----2----2----|----------------------------|-------------------------------------|
D|-2---------2----------2----2----2----|-4---------4-----------4----|-4---------4----------4----4---------|
A|-0---------0----------0----0----0----|-2----0----2------0----2----|-2----0----2-----0----2----2----0----|
E|------3----------3-------------------|----------------------------|-------------------------------------|

E|---------------|----------------------------|----------------------------|---------------------------------|
B|---------------|----------------------------|----------------------------|---------------------------------|
G|--------7------|-2-----------2----2----2----|----------------------------|---------------------------------|
D|-5------7------|-2-----------2----2----2----|------------------4----5----|-5----4--------------------------|
A|-5------5------|-0-----------0----0----0----|-5------5----7--------------|------------7----7----4-----5----|
E|-3-------------|--------3-------------------|----------------------------|---------------------------------|

E|----------------------------|---------------------------------|----------------------------|
B|----------------------------|---------------------------------|----------------------------|
G|----------------------------|---------------------------------|----------------------------|
D|------------------4----5----|-5----4---------------9-----7----|-7------7---------7----9----|
A|-5------5----7--------------|------------7----7---------------|-------------10-------------|
E|----------------------------|---------------------------------|----------------------------|

E|----------------------------------------|----------------------------|---------------------------------|
B|----------------------------------------|----------------------------|---------------------------------|
G|----------------------------------------|----------------------------|---------------------------------|
D|-9----7---9---7-------------------------|------------------4----5----|-5----4--------------------------|
A|-------------------10---10---7-----9----|-9------5----7--------------|------------7----7----4-----5----|
E|----------------------------------------|----------------------------|---------------------------------|

E|----------------------------|-----------------------------|----------------------------|
B|----------------------------|-----------------------------|----------------------------|
G|----------------------------|-----------------------------|----------------------------|
D|------------------4----5----|-5----4----------------------|------------------4----5----|
A|-5------5----7--------------|------------7-----4-----5----|-5------5----7--------------|
E|----------------------------|-----------------------------|----------------------------|

E|-----------------------------|----------------------------|----------------------------------------|
B|-----------------------------|----------------------------|----------------------------------------|
G|-----------------------------|----------------------------|----------------------------------------|
D|-5----4-----------9-----7----|-7------7---------7----9----|-9----7---9---7-------------------------|
A|------------7----------------|-------------10-------------|-------------------10---10---7-----9----|
E|-----------------------------|----------------------------|----------------------------------------|

E|----------------------------|-----------------------------|-------------------------------------|
B|----------------------------|-----------------------------|-10----10--------10-------------10---|
G|----------------------------|-----------------------------|-9-----9---9-----9----9----7---------|
D|------------------4----5----|-5----4----------------------|-------------------------------------|
A|-9------9----7--------------|------------7-----4-----0----|-------------------------------------|
E|----------------------------|-----------------------------|-------------------------------------|

E|-----------------------------------7---|-10--7----------------------------------------------------------|
B|-10---10-----10----10--10--7---10------|---------10------10---10---10---7---10--7-----------------------|
G|---------------------------------------|-------------%------------------------------9---9---9---9---7---|
D|---------------------------------------|-------------%--------------------------------------------------|
A|---------------------------------------|----------------------------------------------------------------|
E|---------------------------------------|----------------------------------------------------------------|

E|-------------------|-----------------------------------------------------------------|
B|-------------------|-----------------------------------------------------------------|
G|-9-------9----7----|-6---6---6---6---7---7---7---7---9---9---9---9---11--11--11--11--|
D|-------------------|-----------------------------------------------------------------|
A|-------------------|-----------------------------------------------------------------|
E|-------------------|-----------------------------------------------------------------|

E|-----------------------------------------------------------------|--------------------------|
B|-10--10--10--10--12--12--12--12--14--14--14--14--15--15--15--15--|-17------17---15--17--15--|
G|-----------------------------------------------------------------|--------------------------|
D|-----------------------------------------------------------------|--------------------------|
A|-----------------------------------------------------------------|--------------------------|
E|-----------------------------------------------------------------|--------------------------|

E|-------------------|-14---15---17---15---14--15--14-------14--------|---------------------------------|
B|-14------14---15---|---------------------------------17--------17---|-15---14---15---14---------------|
G|-------------------|------------------------------------------------|---------------------16----16----|
D|-------------------|------------------------------------------------|---------------------------------|
A|-------------------|------------------------------------------------|---------------------------------|
E|-------------------|------------------------------------------------|---------------------------------|

E|------------------------------------------------------------------|-------------------------------------------------|
B|-----10--12--10--14--12--10------10--12--10-----------------------|-------------------------------------------------|
G|-12--------------------------12--------------12--11--9---11--9----|-7---9---7---6----7----6-------------------------|
D|------------------------------------------------------------------|----------------------------9----9-----9----7----|
A|------------------------------------------------------------------|-------------------------------------------------|
E|------------------------------------------------------------------|-------------------------------------------------|

E|-------------------------------9----10---|-12---10---9---10--9--------9-----9---------|
B|---------------------10---12-------------|-----------------------12-------------------|
G|------7----9----11-----------------------|---------------------------------------%----|
D|-9---------------------------------------|---------------------------------------%----|
A|-----------------------------------------|--------------------------------------------|
E|-----------------------------------------|--------------------------------------------|

E|-12-----12-----|-12------|-12--------------|---------|-----------------|---------|
B|---------------|---------|-----------------|---------|-----------------|---------|
G|---------------|---------|-------8----7----|-7-------|-7-----5----4----|-4-------|
D|---------------|---------|-------8----7----|-7-------|-7-----5----4----|-4-------|
A|---------------|---------|-------6----5----|-5-------|-5-----3----2----|-2-------|
E|---------------|---------|-----------------|---------|-----------------|---------|

E|-----------------|---------|---------|--------------------------------------------------|
B|-----------------|---------|---------|--------------------------------------------------|
G|-4---------------|---------|---------|--------------------------------------------------|
D|-4-----5----2----|-2-------|-2-------|--------------------------------------------------|
A|-2-----5----2----|-2-------|-2-------|-7------------------------------------------10----|
E|-------3----0----|-0-------|-0-------|-5----5---5---5----5---5---5----5---5---5---8-----|

E|--------------------------------------------------|-----------------------------------------------------|
B|--------------------------------------------------|-----------------------------------------------------|
G|--------------------------------------------------|-----------------------------------------------------|
D|--------------------------------------------------|-----------------------------------------------------|
A|-7------------------------------------------8-----|-7----------------------------------------------10---|
E|-5----5---5---5----5---5---5----5---5---5---6-----|-5----5---5---5----5---5---5----5---5---5---5---8----|

E|-------------------------------------------------------|--------------------------------------------------|
B|-------------------------------------------------------|--------------------------------------------------|
G|-------------------------------------------------------|--------------------------------------------------|
D|-------------------------------------------------------|--------------------------------------------------|
A|------5----4----5----7----5---7---5---4---5---4--------|-7------------------------------------------10----|
E|-5------------------------------------------------6----|-5----5---5---5----5---5---5----5---5---5---8-----|

E|--------------------------------------------------|-----------------------------------------------------|
B|--------------------------------------------------|-----------------------------------------------------|
G|--------------------------------------------------|-----------------------------------------------------|
D|--------------------------------------------------|-----------------------------------------------------|
A|-7------------------------------------------8-----|-7----------------------------------------------10---|
E|-5----5---5---5----5---5---5----5---5---5---6-----|-5----5---5---5----5---5---5----5---5---5---5---8----|

E|-------------------------------------------------------|--------------------------------------------------|
B|-------------------------------------------------------|--------------------------------------------------|
G|-------------------------------------------------------|--------------------------------------------------|
D|-------------------------------------------------------|--------------------------------------------------|
A|------5----4----5----7----5---7---5---4---5---4--------|-7------------------------------------------10----|
E|-5------------------------------------------------6----|-5----5---5---5----5---5---5----5---5---5---8-----|

E|--------------------------------------------------|-----------------------------------------------------|
B|--------------------------------------------------|-----------------------------------------------------|
G|--------------------------------------------------|-----------------------------------------------------|
D|--------------------------------------------------|-----------------------------------------------------|
A|-7------------------------------------------8-----|-7----------------------------------------------10---|
E|-5----5---5---5----5---5---5----5---5---5---6-----|-5----5---5---5----5---5---5----5---5---5---5---8----|

E|-------------------------------------------------------|--------------------------------------------------|
B|-------------------------------------------------------|--------------------------------------------------|
G|-------------------------------------------------------|--------------------------------------------------|
D|-------------------------------------------------------|--------------------------------------------------|
A|------5----4----5----7----5---7---5---4---5---4--------|-7------------------------------------------10----|
E|-5------------------------------------------------6----|-5----5---5---5----5---5---5----5---5---5---8-----|

E|--------------------------------------------------|--------------------------------------------------|
B|--------------------------------------------------|--------------------------------------------------|
G|--------------------------------------------------|--------------------------------------------------|
D|--------------------------------------------------|--------------------------------------------------|
A|-7------------------------------------------8-----|-7------------------------------------------10----|
E|-5----5---5---5----5---5---5----5---5---5---6-----|-5----5---5---5----5---5---5----5---5---5---8-----|

E|-------------------------------------------------------|--------------------------------------------------|
B|-------------------------------------------------------|--------------------------------------------------|
G|-------------------------------------------------------|--------------------------------------------------|
D|-------------------------------------------------------|--------------------------------------------------|
A|------5----4----5----7----5---7---5---4---5---4--------|-7------------------------------------------10----|
E|-5------------------------------------------------6----|-5----5---5---5----5---5---5----5---5---5---8-----|

E|--------------------------------------------------|--------------------------------------------------|
B|--------------------------------------------------|--------------------------------------------------|
G|--------------------------------------------------|--------------------------------------------------|
D|--------------------------------------------------|--------------------------------------------------|
A|-7------------------------------------------8-----|-7------------------------------------------10----|
E|-5----5---5---5----5---5---5----5---5---5---6-----|-5----5---5---5----5---5---5----5---5---5---8-----|

E|-------------------------------------------------------|---------------|-----------------------------|
B|-------------------------------------------------------|---------------|-----------------------------|
G|-------------------------------------------------------|---------------|-----------------------------|
D|-------------------------------------------------------|-2-------10----|-6----7----6-----6-----3-----|
A|------5----4----5----7----5---7---5---4---5---4--------|---------------|-----------------------------|
E|-5------------------------------------------------6----|---------------|-----------------------------|

E|---------------|-----------------------------|---------------|-----------------------------|
B|---------------|-----------------------------|---------------|-----------------------------|
G|---------------|-----------------------------|---------------|-----------------------------|
D|-2-------10----|-6----7----6-----6-----3-----|-2-------10----|-6----7----6-----6-----3-----|
A|---------------|-----------------------------|---------------|-----------------------------|
E|---------------|-----------------------------|---------------|-----------------------------|

E|---------------|-----------------------------|---------|---------------|-----------------------------------------------------------|
B|---------------|-----------------------------|---------|---------------|-----------------------------------------------------------|
G|---------------|-----------------------------|-9-------|-5------7------|-----------------------------------------------------------|
D|-2-------10----|-6----7----6-----6-----3-----|-9-------|-5------7------|-----------------------------------------------------------|
A|---------------|-----------------------------|-7-------|-3------5------|-----------------------------------------------------------|
E|---------------|-----------------------------|---------|---------------|-3---0---0---0---0----0---0---3---0---0---0---0----0---0---|

E|-----------------------------------------------------------------|---------|---------------|
B|-----------------------------------------------------------------|---------|---------------|
G|-----------------------------------------------------------------|-9-------|-5------7------|
D|-----------------------------------------------------------------|-9-------|-5------7------|
A|-----------------------------------------------------------------|-7-------|-3------5------|
E|-0---2---2---2---2---3---3---3---3---5---5---5---5---3---2---0---|---------|---------------|

E|-----------------------------------------------------------|-----------------------------------------------------------------|
B|-----------------------------------------------------------|-----------------------------------------------------------------|
G|-----------------------------------------------------------|-----------------------------------------------------------------|
D|-----------------------------------------------------------|-----------------------------------------------------------------|
A|-----------------------------------------------------------|-----------------------------------------------------------------|
E|-3---0---0---0---0----0---0---3---0---0---0---0----0---0---|-0---2---2---2---2---3---3---3---3---5---5---5---5---3---2---0---|

E|---------|---------------|-----------------------------------------------------------|
B|---------|---------------|-----------------------------------------------------------|
G|-9-------|-5------7------|-----------------------------------------------------------|
D|-9-------|-5------7------|-----------------------------------------------------------|
A|-7-------|-3------5------|-----------------------------------------------------------|
E|---------|---------------|-3---0---0---0---0----0---0---3---0---0---0---0----0---0---|

E|-----------------------------------------------------------------|---------|---------------|
B|-----------------------------------------------------------------|---------|---------------|
G|-----------------------------------------------------------------|-9-------|-5------7------|
D|-----------------------------------------------------------------|-9-------|-5------7------|
A|-----------------------------------------------------------------|-7-------|-3------5------|
E|-0---2---2---2---2---3---3---3---3---5---5---5---5---3---2---0---|---------|---------------|

E|-----------------------------------------------------------|-------------------------|
B|-----------------------------------------------------------|-------------------------|
G|-----------------------------------------------------------|-------------------------|
D|-----------------------------------------------------------|-------------------------|
A|-----------------------------------------------------------|-5-----5-----7-----7-----|
E|-3---0---0---0---0----0---0---3---0---0---0---0----0---0---|-3-----3-----5-----5-----|

E|--------------------------------------------------------|---------|--------------------|
B|--------------------------------------------------------|---------|--------------------|
G|--------------------------------------------------------|-5-------|-7-----7-----7------|
D|--------------------------------------------------------|-5-------|-7-----7-----7------|
A|--------------------------------------------------------|-3-------|-5-----5-----5------|
E|-3---0---0---0---0----0---0---3---0---0---0---0----0----|---------|--------------------|

E|---------------|---------|
B|---------------|---------|
G|-9------9------|-9-------|
D|-9------9------|-9-------|
A|-7------7------|-7-------|
E|---------------|---------|
Iron Maiden - Powerslave (2)
Iron Maiden - Powerslave (2).gp3