Iron Maiden - Prodigal Son

Iron Maiden



Title: Prodigal Son
Album: 
Artist: Iron Maiden
Author: Iron Maiden

Track 1: Dave (Guitar)
E|-------------------------------------|-------------------------------0-----|-------------------------------------|
B|--------------------------0----0-----|--------------------------0----------|--------------------------0----0-----|
G|----------------8----8---------------|----------------8----8---------------|----------------6----6---------------|
D|-----------9-------------------------|-----------9-------------------------|-----------7-------------------------|
A|------9------------------------------|------9------------------------------|------7------------------------------|
E|-7-----------------------------------|-7-----------------------------------|-5-----------------------------------|

E|-------------------------------0-----|-------------------------------------|-------------------------------0-----|
B|--------------------------0----------|--------------------------0----0-----|--------------------------0----------|
G|----------------6----6---------------|----------------5----5---------------|----------------5----5---------------|
D|-----------7-------------------------|-----------5-------------------------|-----------5-------------------------|
A|------7------------------------------|------5------------------------------|------5------------------------------|
E|-5-----------------------------------|-3-----------------------------------|-3-----------------------------------|

E|-------------------------------------------|-------------------------------------------|
B|-------------------------------------------|-------------------------------------------|
G|----------------1----1---2---1-------------|----------------1----1---2---1-------------|
D|-----------2----2----2-----------2---2-----|-----------2----2----2-----------2---2-----|
A|------2---------2----2---------------------|------2---------2----2---------------------|
E|-0-----------------------------------------|-0-----------------------------------------|

E|-------------------------------------|-------------------------------0-----|-------------------------------------|
B|--------------------------0----0-----|--------------------------0----------|--------------------------0----0-----|
G|----------------8----8---------------|----------------8----8---------------|----------------6----6---------------|
D|-----------9-------------------------|-----------9-------------------------|-----------7-------------------------|
A|------9------------------------------|------9------------------------------|------7------------------------------|
E|-7-----------------------------------|-7-----------------------------------|-5-----------------------------------|

E|-------------------------------0-----|-------------------------------------|-------------------------------0-----|
B|--------------------------0----------|--------------------------0----0-----|--------------------------0----------|
G|----------------6----6---------------|----------------5----5---------------|----------------5----5---------------|
D|-----------7-------------------------|-----------5-------------------------|-----------5-------------------------|
A|------7------------------------------|------5------------------------------|------5------------------------------|
E|-5-----------------------------------|-3-----------------------------------|-3-----------------------------------|

E|-------------------------------------|-------------------------------------|-0-----0----0----0----0-----0----0----0----|
B|-------------------------------------|-------------------------------------|-0-----0----0----0----0-----0----0----0----|
G|----------------1----2-----1---------|----------------1----2-----1---------|-8-----8----8----8----8-----8----8----8----|
D|-----------2-------------------2-----|-----------2-------------------2-----|-9-----9----9----9----9-----9----9----9----|
A|------2------------------------------|------2------------------------------|-9-----9----9----9----9-----9----9----9----|
E|-0-----------------------------------|-0-----------------------------------|-7-----7----7----7----7-----7----7----7----|

E|-0-----0----0----0----0-----0-----0-----|-0-----0----0----0----0-----0----0----0----|
B|-0-----0----0----0----0-----0-----0-----|-0-----0----0----0----0-----0----0----0----|
G|-8-----8----8----8----8-----8-----8-----|-6-----6----6----6----6-----6----6----6----|
D|-9-----9----9----9----9-----9-----9-----|-7-----7----7----7----7-----7----7----7----|
A|-9-----9----9----9----9-----9-----9-----|-7-----7----7----7----7-----7----7----7----|
E|-7-----7----7----7----7-----7-----7-----|-5-----5----5----5----5-----5----5----5----|

E|-0-----0----0----0----0-----0-----0-----|-0-----0----0----0----0-----0----0----0----|
B|-0-----0----0----0----0-----0-----0-----|-0-----0----0----0----0-----0----0----0----|
G|-6-----6----6----6----6-----6-----6-----|-5-----5----5----5----5-----5----5----5----|
D|-7-----7----7----7----7-----7-----7-----|-5-----5----5----5----5-----5----5----5----|
A|-7-----7----7----7----7-----7-----7-----|-5-----5----5----5----5-----5----5----5----|
E|-5-----5----5----5----5-----5-----5-----|-3-----3----3----3----3-----3----3----3----|

E|-0-----0----0----0----0-----0-----0-----|-0-----0----0----0----0-----0----0----0----|
B|-0-----0----0----0----0-----0-----0-----|-0-----0----0----0----0-----0----0----0----|
G|-5-----5----5----5----5-----5-----5-----|-1-----1----1----1----1-----1----1----1----|
D|-5-----5----5----5----5-----5-----5-----|-2-----2----2----2----2-----2----2----2----|
A|-5-----5----5----5----5-----5-----5-----|-2-----2----2----2----2-----2----2----2----|
E|-3-----3----3----3----3-----3-----3-----|-0-----0----0----0----0-----0----0----0----|

E|-0-----0----0----0----0-----0----0----0----|-0-----0----0----0----0-----0----0----0----|
B|-0-----0----0----0----0-----0----0----0----|-0-----0----0----0----0-----0----0----0----|
G|-1-----1----1----1----1-----1----1----1----|-8-----8----8----8----8-----8----8----8----|
D|-2-----2----2----2----2-----2----2----2----|-9-----9----9----9----9-----9----9----9----|
A|-2-----2----2----2----2-----2----2----2----|-9-----9----9----9----9-----9----9----9----|
E|-0-----0----0----0----0-----0----0----0----|-7-----7----7----7----7-----7----7----7----|

E|-0-----0----0----0----0-----0-----0-----|-0-----0----0----0----0-----0----0----0----|
B|-0-----0----0----0----0-----0-----0-----|-0-----0----0----0----0-----0----0----0----|
G|-8-----8----8----8----8-----8-----8-----|-6-----6----6----6----6-----6----6----6----|
D|-9-----9----9----9----9-----9-----9-----|-7-----7----7----7----7-----7----7----7----|
A|-9-----9----9----9----9-----9-----9-----|-7-----7----7----7----7-----7----7----7----|
E|-7-----7----7----7----7-----7-----7-----|-5-----5----5----5----5-----5----5----5----|

E|-0-----0----0----0----0-----0-----0-----|-0-----0----0----0----0-----0----0----0----|
B|-0-----0----0----0----0-----0-----0-----|-0-----0----0----0----0-----0----0----0----|
G|-6-----6----6----6----6-----6-----6-----|-5-----5----5----5----5-----5----5----5----|
D|-7-----7----7----7----7-----7-----7-----|-5-----5----5----5----5-----5----5----5----|
A|-7-----7----7----7----7-----7-----7-----|-5-----5----5----5----5-----5----5----5----|
E|-5-----5----5----5----5-----5-----5-----|-3-----3----3----3----3-----3----3----3----|

E|-0-----0----0----0----0-----0-----0-----|-0-----0----0----0----0-----0----0----0----|
B|-0-----0----0----0----0-----0-----0-----|-0-----0----0----0----0-----0----0----0----|
G|-5-----5----5----5----5-----5-----5-----|-1-----1----1----1----1-----1----1----1----|
D|-5-----5----5----5----5-----5-----5-----|-2-----2----2----2----2-----2----2----2----|
A|-5-----5----5----5----5-----5-----5-----|-2-----2----2----2----2-----2----2----2----|
E|-3-----3----3----3----3-----3-----3-----|-0-----0----0----0----0-----0----0----0----|

E|-0-----0----0----0----0-----0----0----0----|
B|-0-----0----0----0----0-----0----0----0----|
G|-1-----1----1----1----1-----1----1----1----|
D|-2-----2----2----2----2-----2----2----2----|
A|-2-----2----2----2----2-----2----2----2----|
E|-0-----0----0----0----0-----0----0----0----|
Iron Maiden - Prodigal Son
Iron Maiden - Prodigal Son.gp3