Iron Maiden - Prowler

Iron Maiden - Prowler

Iron Maiden



Title: Prowler
Album: 
Artist: Iron Maiden
Author: 

Track 1: Guitar 1
E|-----------------------------------------|-----------------------------------------|
B|-----------------------------------------|-----------------------------------------|
G|-----------9--------------9--------------|-9--------------9--------------9---------|
D|-----------9--------------9--------------|-9--------------9--------------9---------|
A|-7----7----7----7----7----7----7----7----|-7----7----7----7----7----7----7----7----|
E|-----------------------------------------|-----------------------------------------|

E|-----------------------------------------|-----------------------------------------|
B|-----------------------------------------|-----------------------------------------|
G|-----------9--------------9--------------|-9--------------9--------------9---------|
D|-----------9--------------9--------------|-9--------------9--------------9---------|
A|-7----7----7----7----7----7----7----7----|-7----7----7----7----7----7----7----7----|
E|-----------------------------------------|-----------------------------------------|

E|-----------------------------------------|-----------------------------------------|
B|-----------------------------------------|-----------------------------------------|
G|-----------9--------------9--------------|-9--------------9--------------9---------|
D|-----------9--------------9--------------|-9--------------9--------------9---------|
A|-7----7----7----7----7----7----7----7----|-7----7----7----7----7----7----7----7----|
E|-----------------------------------------|-----------------------------------------|

E|-----------------------------------------|-----------------------------------------|
B|-----------------------------------------|-----------------------------------------|
G|-----------9--------------9--------------|-9--------------9--------------9---------|
D|-----------9--------------9--------------|-9--------------9--------------9---------|
A|-7----7----7----7----7----7----7----7----|-7----7----7----7----7----7----7----7----|
E|-----------------------------------------|-----------------------------------------|

E|-----------------------------------------|-----------------------------------------|
B|-----------------------------------------|-----------------------------------------|
G|-----------7--------------7--------------|-7--------------7--------------7---------|
D|-----------7--------------7--------------|-7--------------7--------------7---------|
A|-5----5----5----5----5----5----5----5----|-5----5----5----5----5----5----5----5----|
E|-----------------------------------------|-----------------------------------------|

E|-----------------------------------------|-----------------------------------------|
B|-----------------------------------------|-----------------------------------------|
G|-----------9--------------9--------------|-9--------------9--------------9---------|
D|-----------9--------------9--------------|-9--------------9--------------9---------|
A|-7----7----7----7----7----7----7----7----|-7----7----7----7----7----7----7----7----|
E|-----------------------------------------|-----------------------------------------|

E|-----------------------------------------|-----------------------------------------|
B|-----------------------------------------|-----------------------------------------|
G|-----------9--------------9--------------|-9--------------9--------------9---------|
D|-----------9--------------9--------------|-9--------------9--------------9---------|
A|-7----7----7----7----7----7----7----7----|-7----7----7----7----7----7----7----7----|
E|-----------------------------------------|-----------------------------------------|

E|-----------------------------------------|-----------------------------------------|
B|-----------------------------------------|-----------------------------------------|
G|-----------9--------------9--------------|-9--------------9--------------9---------|
D|-----------9--------------9--------------|-9--------------9--------------9---------|
A|-7----7----7----7----7----7----7----7----|-7----7----7----7----7----7----7----7----|
E|-----------------------------------------|-----------------------------------------|

E|-----------------------------------------|-----------------------------------------|
B|-----------------------------------------|-----------------------------------------|
G|-----------7--------------7--------------|-7--------------7--------------7---------|
D|-----------7--------------7--------------|-7--------------7--------------7---------|
A|-5----5----5----5----5----5----5----5----|-5----5----5----5----5----5----5----5----|
E|-----------------------------------------|-----------------------------------------|

E|-----------------------------------------|-----------------------------------------|
B|-----------------------------------------|-----------------------------------------|
G|-----------9--------------9--------------|-9--------------9--------------9---------|
D|-----------9--------------9--------------|-9--------------9--------------9---------|
A|-7----7----7----7----7----7----7----7----|-7----7----7----7----7----7----7----7----|
E|-----------------------------------------|-----------------------------------------|

E|-----------------------------------------|-----------------------------------------|
B|-----------------------------------------|-----------------------------------------|
G|-----------9--------------9--------------|-9--------------9--------------9---------|
D|-----------9--------------9--------------|-9--------------9--------------9---------|
A|-7----7----7----7----7----7----7----7----|-7----7----7----7----7----7----7----7----|
E|-----------------------------------------|-----------------------------------------|

E|-----------------------------------------|-----------------------------------------|
B|-----------------------------------------|-----------------------------------------|
G|-----------9--------------9--------------|-9--------------9--------------9---------|
D|-----------9--------------9--------------|-9--------------9--------------9---------|
A|-7----7----7----7----7----7----7----7----|-7----7----7----7----7----7----7----7----|
E|-----------------------------------------|-----------------------------------------|

E|-----------------------------------------|-----------------------------------------|
B|-----------------------------------------|-----------------------------------------|
G|-----------7--------------7--------------|-7--------------7--------------7---------|
D|-----------7--------------7--------------|-7--------------7--------------7---------|
A|-5----5----5----5----5----5----5----5----|-5----5----5----5----5----5----5----5----|
E|-----------------------------------------|-----------------------------------------|

E|-----------------------------------------|-----------------------------------------|
B|-----------------------------------------|-----------------------------------------|
G|-----------9--------------9--------------|-----------------------------------------|
D|-----------9--------------9--------------|-2---------------------------------------|
A|-7----7----7----7----7----7----7----7----|------5----2----5----5----2--------------|
E|-----------------------------------------|-------------------------------5----3----|

E|-----------------------------------------|-----------------------------------------|
B|-----------------------------------------|-----------------------------------------|
G|-----------9--------------9--------------|-9--------------9--------------9---------|
D|-----------9--------------9--------------|-9--------------9--------------9---------|
A|-7----7----7----7----7----7----7----7----|-7----7----7----7----7----7----7----7----|
E|-----------------------------------------|-----------------------------------------|

E|-----------------------------------------|-----------------------------------------|
B|-----------------------------------------|-----------------------------------------|
G|-----------9--------------9--------------|-9--------------9--------------9---------|
D|-----------9--------------9--------------|-9--------------9--------------9---------|
A|-7----7----7----7----7----7----7----7----|-7----7----7----7----7----7----7----7----|
E|-----------------------------------------|-----------------------------------------|

E|-----------------------------------------|-----------------------------------------|
B|-----------------------------------------|-----------------------------------------|
G|-----------7--------------7--------------|-7--------------7--------------7---------|
D|-----------7--------------7--------------|-7--------------7--------------7---------|
A|-5----5----5----5----5----5----5----5----|-5----5----5----5----5----5----5----5----|
E|-----------------------------------------|-----------------------------------------|

E|-----------------------------------------|---------------------|-----------------------------------------|
B|-----------------------------------------|---------------------|-----------------------------------------|
G|-----------9--------------9--------------|---------------------|-----------10-------------10-------------|
D|-----------9--------------9--------------|-5------7------5-----|-----------10-------------10-------------|
A|-7----7----7----7----7----7----7----7----|-5------7------5-----|-8----8----8----8----8----8----8----8----|
E|-----------------------------------------|-3------5------3-----|-----------------------------------------|

E|-----------------------------------------|-----------------------------------------|
B|-----------------------------------------|-----------------------------------------|
G|-10-------------10-------------10--------|-----------10-------------10-------------|
D|-10-------------10-------------10--------|-----------10-------------10-------------|
A|-8----8----8----8----8----8----8----8----|-8----8----8----8----8----8----8----8----|
E|-----------------------------------------|-----------------------------------------|

E|-----------------------------------------|-------------------------|---------------------|
B|-----------------------------------------|-------------------------|---------------------|
G|-10-------------10-------------10--------|-------------------------|---------------------|
D|-10-------------10-------------10--------|-------2------2----------|-5------7------5-----|
A|-8----8----8----8----8----8----8----8----|-------2------2----------|-5------7------5-----|
E|-----------------------------------------|-0-----0------0----0-----|-3------5------3-----|

E|-------------------------|-------------------------|-----------------------------------------|
B|-------------------------|-10----8----10-----8-----|-----------------------------------------|
G|-------------------------|-------------------------|-----------10-------------10-------------|
D|-------2------2----------|-------------------------|-----------10-------------10-------------|
A|-------2------2----------|-------------------------|-8----8----8----8----8----8----8----8----|
E|-0-----0------0----0-----|-------------------------|-----------------------------------------|

E|-----------------------------------------|-----------------------------------------|
B|-----------------------------------------|-----------------------------------------|
G|-10-------------10-------------10--------|-----------10-------------10-------------|
D|-10-------------10-------------10--------|-----------10-------------10-------------|
A|-8----8----8----8----8----8----8----8----|-8----8----8----8----8----8----8----8----|
E|-----------------------------------------|-----------------------------------------|

E|-----------------------------------------|-------------------------|---------------------|
B|-----------------------------------------|-------------------------|---------------------|
G|-10-------------10-------------10--------|-------------------------|---------------------|
D|-10-------------10-------------10--------|-------2------2----------|-5------7------5-----|
A|-8----8----8----8----8----8----8----8----|-------2------2----------|-5------7------5-----|
E|-----------------------------------------|-0-----0------0----0-----|-3------5------3-----|

E|-------------------------|-------------------------|---------|---------|---------|
B|-------------------------|-10----8----10-----8-----|---------|---------|---------|
G|-------------------------|-------------------------|-5-------|-5-------|-7-------|
D|-------2------2----------|-------------------------|-5-------|-5-------|-7-------|
A|-------2------2----------|-------------------------|-3-------|-3-------|-5-------|
E|-0-----0------0----0-----|-------------------------|---------|---------|---------|

E|---------|-----------------------------------------|-----------------------------------------|
B|---------|-----------------------------------------|-----------------------------------------|
G|-7-------|-----------9--------------9--------------|-9--------------9--------------9---------|
D|-7-------|-----------9--------------9--------------|-9--------------9--------------9---------|
A|-5-------|-7----7----7----7----7----7----7----7----|-7----7----7----7----7----7----7----7----|
E|---------|-----------------------------------------|-----------------------------------------|

E|-----------------------------------------|-----------------------------------------|
B|-----------------------------------------|-----------------------------------------|
G|-----------9--------------9--------------|-9--------------9--------------9---------|
D|-----------9--------------9--------------|-9--------------9--------------9---------|
A|-7----7----7----7----7----7----7----7----|-7----7----7----7----7----7----7----7----|
E|-----------------------------------------|-----------------------------------------|

E|---------|---------|---------|---------|---------|-----------------------------------------------|
B|---------|---------|---------|---------|---------|-12---12--10---10-------------------------10---|
G|-5-------|-5-------|-7-------|-7-------|-9-------|-------------------12---12--11---11--12--------|
D|-5-------|-5-------|-7-------|-7-------|-9-------|-----------------------------------------------|
A|-3-------|-3-------|-5-------|-5-------|-7-------|-----------------------------------------------|
E|---------|---------|---------|---------|---------|-----------------------------------------------|

E|-----------------------------------------------|-----------------------------------------------|
B|-12---12--10---10-------------------------10---|-12---12--10---10-------------------------10---|
G|-------------------12---12--11---11--12--------|-------------------12---12--11---11--12--------|
D|-----------------------------------------------|-----------------------------------------------|
A|-----------------------------------------------|-----------------------------------------------|
E|-----------------------------------------------|-----------------------------------------------|

E|-----------------------------------------------|-----------------------------------------------|
B|-12---12--10---10-------------------------10---|-12---12--10---10-------------------------10---|
G|-------------------12---12--11---11--12--------|-------------------12---12--11---11--12--------|
D|-----------------------------------------------|-----------------------------------------------|
A|-----------------------------------------------|-----------------------------------------------|
E|-----------------------------------------------|-----------------------------------------------|

E|-----------------------------------------------|-----------------------------------------------|
B|-12---12--10---10-------------------------10---|-12---12--10---10-------------------------10---|
G|-------------------12---12--11---11--12--------|-------------------12---12--11---11--12--------|
D|-----------------------------------------------|-----------------------------------------------|
A|-----------------------------------------------|-----------------------------------------------|
E|-----------------------------------------------|-----------------------------------------------|

E|-----------------------------------------------|-----------------------------------------------|
B|-12---12--10---10-------------------------10---|-12---12--10---10-------------------------10---|
G|-------------------12---12--11---11--12--------|-------------------12---12--11---11--12--------|
D|-----------------------------------------------|-----------------------------------------------|
A|-----------------------------------------------|-----------------------------------------------|
E|-----------------------------------------------|-----------------------------------------------|

E|-----------------------------------------------|-----------------------------------------------|
B|-12---12--10---10-------------------------10---|-12---12--10---10-------------------------10---|
G|-------------------12---12--11---11--12--------|-------------------12---12--11---11--12--------|
D|-----------------------------------------------|-----------------------------------------------|
A|-----------------------------------------------|-----------------------------------------------|
E|-----------------------------------------------|-----------------------------------------------|

E|---------|-----------------------------------------------------------|-----------------------------------------------------------|
B|---------|-----------------------------------------------------------|-----------------------------------------------------------|
G|-9-------|-----------------------------------------------------------|-----------------------------------------------------------|
D|-9-------|-----------------------------------------------------------|-----------------------------------------------------------|
A|-7-------|-7---5-------7---5-------7---5-------7---5-------7----5----|-7---5-------7---5-------7---5-------7---5-------7----5----|
E|---------|---------7-----------7-----------7-----------7-------------|---------7-----------7-----------7-----------7-------------|

E|-----------------------------------------------------------|-----------------------------------------------------------|
B|-----------------------------------------------------------|-5---3---0---5---3---0---5---3---0---5---3---0---5----3----|
G|-----------------------------------------------------------|-----------------------------------------------------------|
D|-----------------------------------------------------------|-----------------------------------------------------------|
A|-7---5-------7---5-------7---5-------7---5-------7----5----|-----------------------------------------------------------|
E|---------7-----------7-----------7-----------7-------------|-----------------------------------------------------------|

E|-----------------------------------------------------------|-----------------------------------------------------------|
B|-5---3---0---5---3---0---5---3---0---5---3---0---5----3----|-5---3---0---5---3---0---5---3---0---5---3---0---5----3----|
G|-----------------------------------------------------------|-----------------------------------------------------------|
D|-----------------------------------------------------------|-----------------------------------------------------------|
A|-----------------------------------------------------------|-----------------------------------------------------------|
E|-----------------------------------------------------------|-----------------------------------------------------------|

E|-----------------------------------------------------------|-----------------------------------------------------------|
B|-5---3---0---5---3---0---5---3---0---5---3---0---5----3----|-5---3---0---5---3---0---5---3---0---5---3---0---5----3----|
G|-----------------------------------------------------------|-----------------------------------------------------------|
D|-----------------------------------------------------------|-----------------------------------------------------------|
A|-----------------------------------------------------------|-----------------------------------------------------------|
E|-----------------------------------------------------------|-----------------------------------------------------------|

E|-------------------------|---------------------|-------------------------|---------------------|
B|-------------------------|---------------------|-------------------------|---------------------|
G|-9-----9-----9-----9-----|-9------9------9-----|-7-----7-----7-----7-----|-7------7------7-----|
D|-9-----9-----9-----9-----|-9------9------9-----|-7-----7-----7-----7-----|-7------7------7-----|
A|-7-----7-----7-----7-----|-7------7------7-----|-5-----5-----5-----5-----|-5------5------5-----|
E|-------------------------|---------------------|-------------------------|---------------------|

E|-------------------------|---------------------|-------------------------|---------------------|
B|-------------------------|---------------------|-------------------------|---------------------|
G|-5-----5-----5-----5-----|-5------5------5-----|-4-----4-----4-----4-----|-5------5------7-----|
D|-5-----5-----5-----5-----|-5------5------5-----|-4-----4-----4-----4-----|-5------5------7-----|
A|-3-----3-----3-----3-----|-3------3------3-----|-2-----2-----2-----2-----|-3------3------5-----|
E|-------------------------|---------------------|-------------------------|---------------------|

E|-------------------------|---------------------|-------------------------|---------------------|
B|-------------------------|---------------------|-------------------------|---------------------|
G|-9-----9-----9-----9-----|-9------9------9-----|-7-----7-----7-----7-----|-7------7------7-----|
D|-9-----9-----9-----9-----|-9------9------9-----|-7-----7-----7-----7-----|-7------7------7-----|
A|-7-----7-----7-----7-----|-7------7------7-----|-5-----5-----5-----5-----|-5------5------5-----|
E|-------------------------|---------------------|-------------------------|---------------------|

E|-------------------------|---------------------|-------------------------|---------------------|
B|-------------------------|---------------------|-------------------------|---------------------|
G|-5-----5-----5-----5-----|-5------5------5-----|-4-----4-----4-----4-----|-5------5------7-----|
D|-5-----5-----5-----5-----|-5------5------5-----|-4-----4-----4-----4-----|-5------5------7-----|
A|-3-----3-----3-----3-----|-3------3------3-----|-2-----2-----2-----2-----|-3------3------5-----|
E|-------------------------|---------------------|-------------------------|---------------------|

E|-------------------------|---------------------|-------------------------|---------------------|
B|-------------------------|---------------------|-------------------------|---------------------|
G|-9-----9-----9-----9-----|-9------9------9-----|-7-----7-----7-----7-----|-7------7------7-----|
D|-9-----9-----9-----9-----|-9------9------9-----|-7-----7-----7-----7-----|-7------7------7-----|
A|-7-----7-----7-----7-----|-7------7------7-----|-5-----5-----5-----5-----|-5------5------5-----|
E|-------------------------|---------------------|-------------------------|---------------------|

E|-------------------------|---------------------|-------------------------|---------------------|
B|-------------------------|---------------------|-------------------------|---------------------|
G|-5-----5-----5-----5-----|-5------5------5-----|-4-----4-----4-----4-----|-5------5------7-----|
D|-5-----5-----5-----5-----|-5------5------5-----|-4-----4-----4-----4-----|-5------5------7-----|
A|-3-----3-----3-----3-----|-3------3------3-----|-2-----2-----2-----2-----|-3------3------5-----|
E|-------------------------|---------------------|-------------------------|---------------------|

E|-------------------------|---------|-------------------------|---------|-------------------------|
B|-------------------------|---------|-------------------------|---------|-------------------------|
G|-9-----9-----9-----9-----|-9-------|-7-----7-----7-----7-----|-7-------|-5-----5-----5-----5-----|
D|-9-----9-----9-----9-----|-9-------|-7-----7-----7-----7-----|-7-------|-5-----5-----5-----5-----|
A|-7-----7-----7-----7-----|-7-------|-5-----5-----5-----5-----|-5-------|-3-----3-----3-----3-----|
E|-------------------------|---------|-------------------------|---------|-------------------------|

E|---------|---------------------|---------------------|-------------------------|---------|
B|---------|---------------------|---------------------|-------------------------|---------|
G|-5-------|-4------4------4-----|-5------5------7-----|-9-----9-----9-----9-----|-9-------|
D|-5-------|-4------4------4-----|-5------5------7-----|-9-----9-----9-----9-----|-9-------|
A|-3-------|-2------2------2-----|-3------3------5-----|-7-----7-----7-----7-----|-7-------|
E|---------|---------------------|---------------------|-------------------------|---------|

E|-------------------------|---------|---------|---------|---------|---------|-----------------------------------------|
B|-------------------------|---------|---------|---------|---------|---------|-----------------------------------------|
G|-7-----7-----7-----7-----|-7-------|-5-------|-5-------|-7-------|-7-------|-----------9--------------9--------------|
D|-7-----7-----7-----7-----|-7-------|-5-------|-5-------|-7-------|-7-------|-----------9--------------9--------------|
A|-5-----5-----5-----5-----|-5-------|-3-------|-3-------|-5-------|-5-------|-7----7----7----7----7----7----7----7----|
E|-------------------------|---------|---------|---------|---------|---------|-----------------------------------------|

E|-----------------------------------------|-----------------------------------------|
B|-----------------------------------------|-----------------------------------------|
G|-9--------------9--------------9---------|-----------9--------------9--------------|
D|-9--------------9--------------9---------|-----------9--------------9--------------|
A|-7----7----7----7----7----7----7----7----|-7----7----7----7----7----7----7----7----|
E|-----------------------------------------|-----------------------------------------|

E|-----------------------------------------|---------|---------|---------|---------|
B|-----------------------------------------|---------|---------|---------|---------|
G|-9--------------9--------------9---------|-5-------|-5-------|-7-------|-7-------|
D|-9--------------9--------------9---------|-5-------|-5-------|-7-------|-7-------|
A|-7----7----7----7----7----7----7----7----|-3-------|-3-------|-5-------|-5-------|
E|-----------------------------------------|---------|---------|---------|---------|

E|-----------------------------------------|-----------------------------------------|
B|-----------------------------------------|-----------------------------------------|
G|-----------9--------------9--------------|-9--------------9--------------9---------|
D|-----------9--------------9--------------|-9--------------9--------------9---------|
A|-7----7----7----7----7----7----7----7----|-7----7----7----7----7----7----7----7----|
E|-----------------------------------------|-----------------------------------------|

E|-----------------------------------------|-----------------------------------------|
B|-----------------------------------------|-----------------------------------------|
G|-----------9--------------9--------------|-9--------------9--------------9---------|
D|-----------9--------------9--------------|-9--------------9--------------9---------|
A|-7----7----7----7----7----7----7----7----|-7----7----7----7----7----7----7----7----|
E|-----------------------------------------|-----------------------------------------|

E|-----------------------------------------|-----------------------------------------|
B|-----------------------------------------|-----------------------------------------|
G|-----------7--------------7--------------|-7--------------7--------------7---------|
D|-----------7--------------7--------------|-7--------------7--------------7---------|
A|-5----5----5----5----5----5----5----5----|-5----5----5----5----5----5----5----5----|
E|-----------------------------------------|-----------------------------------------|

E|-----------------------------------------|-----------------------------------------|
B|-----------------------------------------|-----------------------------------------|
G|-----------9--------------9--------------|-----------------------------------------|
D|-----------9--------------9--------------|-2---------------------------------------|
A|-7----7----7----7----7----7----7----7----|------5----2----5----5----2--------------|
E|-----------------------------------------|-------------------------------5----3----|

E|-----------------------------------------|-----------------------------------------|
B|-----------------------------------------|-----------------------------------------|
G|-----------9--------------9--------------|-9--------------9--------------9---------|
D|-----------9--------------9--------------|-9--------------9--------------9---------|
A|-7----7----7----7----7----7----7----7----|-7----7----7----7----7----7----7----7----|
E|-----------------------------------------|-----------------------------------------|

E|-----------------------------------------|-----------------------------------------|
B|-----------------------------------------|-----------------------------------------|
G|-----------9--------------9--------------|-9--------------9--------------9---------|
D|-----------9--------------9--------------|-9--------------9--------------9---------|
A|-7----7----7----7----7----7----7----7----|-7----7----7----7----7----7----7----7----|
E|-----------------------------------------|-----------------------------------------|

E|-----------------------------------------|-----------------------------------------|
B|-----------------------------------------|-----------------------------------------|
G|-----------7--------------7--------------|-7--------------7--------------7---------|
D|-----------7--------------7--------------|-7--------------7--------------7---------|
A|-5----5----5----5----5----5----5----5----|-5----5----5----5----5----5----5----5----|
E|-----------------------------------------|-----------------------------------------|

E|-----------------------------------------|---------------------|-----------------------------------------|
B|-----------------------------------------|---------------------|-----------------------------------------|
G|-----------9--------------9--------------|---------------------|-----------10-------------10-------------|
D|-----------9--------------9--------------|-5------7------5-----|-----------10-------------10-------------|
A|-7----7----7----7----7----7----7----7----|-5------7------5-----|-8----8----8----8----8----8----8----8----|
E|-----------------------------------------|-3------5------3-----|-----------------------------------------|

E|-----------------------------------------|-----------------------------------------|
B|-----------------------------------------|-----------------------------------------|
G|-10-------------10-------------10--------|-----------10-------------10-------------|
D|-10-------------10-------------10--------|-----------10-------------10-------------|
A|-8----8----8----8----8----8----8----8----|-8----8----8----8----8----8----8----8----|
E|-----------------------------------------|-----------------------------------------|

E|-----------------------------------------|-------------------------|---------------------|
B|-----------------------------------------|-------------------------|---------------------|
G|-10-------------10-------------10--------|-------------------------|---------------------|
D|-10-------------10-------------10--------|-------2------2----------|-5------7------5-----|
A|-8----8----8----8----8----8----8----8----|-------2------2----------|-5------7------5-----|
E|-----------------------------------------|-0-----0------0----0-----|-3------5------3-----|

E|-------------------------|-------------------------|-----------------------------------------|
B|-------------------------|-10----8----10-----8-----|-----------------------------------------|
G|-------------------------|-------------------------|-----------10-------------10-------------|
D|-------2------2----------|-------------------------|-----------10-------------10-------------|
A|-------2------2----------|-------------------------|-8----8----8----8----8----8----8----8----|
E|-0-----0------0----0-----|-------------------------|-----------------------------------------|

E|-----------------------------------------|-----------------------------------------|
B|-----------------------------------------|-----------------------------------------|
G|-10-------------10-------------10--------|-----------10-------------10-------------|
D|-10-------------10-------------10--------|-----------10-------------10-------------|
A|-8----8----8----8----8----8----8----8----|-8----8----8----8----8----8----8----8----|
E|-----------------------------------------|-----------------------------------------|

E|-----------------------------------------|-------------------------|---------------------|
B|-----------------------------------------|-------------------------|---------------------|
G|-10-------------10-------------10--------|-------------------------|---------------------|
D|-10-------------10-------------10--------|-------2------2----------|-5------7------5-----|
A|-8----8----8----8----8----8----8----8----|-------2------2----------|-5------7------5-----|
E|-----------------------------------------|-0-----0------0----0-----|-3------5------3-----|

E|-------------------------|-------------------------|---------|---------|---------|
B|-------------------------|-10----8----10-----8-----|---------|---------|---------|
G|-------------------------|-------------------------|-5-------|-5-------|-7-------|
D|-------2------2----------|-------------------------|-5-------|-5-------|-7-------|
A|-------2------2----------|-------------------------|-3-------|-3-------|-5-------|
E|-0-----0------0----0-----|-------------------------|---------|---------|---------|

E|---------|-----------------------------------------|-----------------------------------------|
B|---------|-----------------------------------------|-----------------------------------------|
G|-7-------|-----------9--------------9--------------|-9--------------9--------------9---------|
D|-7-------|-----------9--------------9--------------|-9--------------9--------------9---------|
A|-5-------|-7----7----7----7----7----7----7----7----|-7----7----7----7----7----7----7----7----|
E|---------|-----------------------------------------|-----------------------------------------|

E|-----------------------------------------|-----------------------------------------|
B|-----------------------------------------|-----------------------------------------|
G|-----------9--------------9--------------|-9--------------9--------------9---------|
D|-----------9--------------9--------------|-9--------------9--------------9---------|
A|-7----7----7----7----7----7----7----7----|-7----7----7----7----7----7----7----7----|
E|-----------------------------------------|-----------------------------------------|

E|---------|---------|---------|---------|-----------------------------------------------------------------|
B|---------|---------|---------|---------|-----------------------------------------------------------------|
G|-5-------|-5-------|-7-------|-7-------|-----------------------------------------------------------------|
D|-5-------|-5-------|-7-------|-7-------|-----------------------------------------------------------------|
A|-3-------|-3-------|-5-------|-5-------|-----------------------------------------------------------------|
E|---------|---------|---------|---------|-0---0---0---0---0---0---0---0---0---0---0---0---0---0---0---0---|

E|-----------------------------------------------------------------|-----------------------------------------------------------------|
B|-----------------------------------------------------------------|-----------------------------------------------------------------|
G|-----------------------------------------------------------------|-----------------------------------------------------------------|
D|-----------------------------------------------------------------|-----------------------------------------------------------------|
A|-----------------------------------------------------------------|-----------------------------------------------------------------|
E|-0---0---0---0---0---0---0---0---0---0---0---0---0---0---0---0---|-0---0---0---0---0---0---0---0---0---0---0---0---0---0---0---0---|

E|-----------------------------------------------------------------|-----------------------------------------------------------------|
B|-----------------------------------------------------------------|-----------------------------------------------------------------|
G|-----------------------------------------------------------------|-----------------------------------------------------------------|
D|-----------------------------------------------------------------|-----------------------------------------------------------------|
A|-----------------------------------------------------------------|-----------------------------------------------------------------|
E|-0---0---0---0---0---0---0---0---0---0---0---0---0---0---0---0---|-0---0---0---0---0---0---0---0---0---0---0---0---0---0---0---0---|

E|-----------------------------------------------------------------|-----------------------------------------------------------------|
B|-----------------------------------------------------------------|-----------------------------------------------------------------|
G|-----------------------------------------------------------------|-----------------------------------------------------------------|
D|-----------------------------------------------------------------|-----------------------------------------------------------------|
A|-----------------------------------------------------------------|-----------------------------------------------------------------|
E|-0---0---0---0---0---0---0---0---0---0---0---0---0---0---0---0---|-0---0---0---0---0---0---0---0---0---0---0---0---0---0---0---0---|

E|-----------------------------------------------------------------|-----------------------------------------------------------------|
B|-----------------------------------------------------------------|-----------------------------------------------------------------|
G|-----------------------------------------------------------------|-----------------------------------------------------------------|
D|-----------------------------------------------------------------|-----------------------------------------------------------------|
A|-----------------------------------------------------------------|-----------------------------------------------------------------|
E|-0---0---0---0---0---0---0---0---0---0---0---0---0---0---0---0---|-0---0---0---0---0---0---0---0---0---0---0---0---0---0---0---0---|

E|---------------|
B|---------------|
G|--------%------|
D|-2------%------|
A|-2-------------|
E|-0-------------|
Iron Maiden - Prowler
Iron Maiden - Prowler.gp3