Iron Maiden - Quest For Fire

Iron Maiden - Quest For Fire

Iron Maiden



Title: Quest For Fire
Album: 
Artist: 
Author: Iron Maiden

Track 1: Guitar1
E|------------|------------|------------|------------|------------|------------|------------|
B|------------|------------|------------|------------|------------|------------|------------|
G|-%-----%----|-%-----%----|-%-----%----|-%-----%----|-%-----%----|-%-----%----|-%-----%----|
D|-%-----%----|-%-----%----|-%-----%----|-%-----%----|-%-----%----|-%-----%----|-%-----%----|
A|------------|------------|------------|------------|------------|------------|------------|
E|------------|------------|------------|------------|------------|------------|------------|

E|------------|------------|------------|------------|------------|------------|------------|
B|------------|------------|------------|------------|------------|------------|------------|
G|-%-----%----|-%-----%----|-%-----%----|-%-----%----|-%-----%----|-%-----%----|-%-----%----|
D|-%-----%----|-%-----%----|-%-----%----|-%-----%----|-%-----%----|-%-----%----|-%-----%----|
A|------------|------------|------------|------------|------------|------------|------------|
E|------------|------------|------------|------------|------------|------------|------------|

E|------------|------------|------------|---------|---------------------------|------------------------------------|
B|------------|------------|------------|---------|---------------------------|-0----------------------------------|
G|-%-----%----|-%-----%----|-%-----%----|-%-------|-%------%-----%----0---2---|--------------------------------0---|
D|-%-----%----|-%-----%----|-%-----%----|-%-------|-%------%-----%------------|--------2----2---2---2----4---------|
A|------------|------------|------------|---------|---------------------------|------------------------------------|
E|------------|------------|------------|---------|---------------------------|------------------------------------|

E|----------------------|---------------------------------|-0-------------------------|
B|----------------------|-0------0----0-----0---0-----0---|-------3-------------------|
G|---------%----0---2---|---------------------------------|--------------%----0-------|
D|-4-------%------------|---------------------------------|--------------%--------4---|
A|----------------------|---------------------------------|---------------------------|
E|----------------------|---------------------------------|---------------------------|

E|------------------------------------|------------------------|--------------------------------|
B|------------------------------------|------------------------|--------------------------------|
G|-0-----------0-----0---0------------|-0------------%---------|-0-----------0----0-------------|
D|--------2------------------4---2----|-------2------%----2----|--------2---------------4---2---|
A|------------------------------------|------------------------|--------------------------------|
E|------------------------------------|------------------------|--------------------------------|

E|----------------------|---------------------------------|---------------------------|
B|----------------------|-0-------------------------------|---------------------------|
G|---------%----0---2---|-----------------------------0---|--------------%----0---2---|
D|-4-------%------------|--------2----2---2-----4---------|-4-----2------%------------|
A|----------------------|---------------------------------|---------------------------|
E|----------------------|---------------------------------|---------------------------|

E|---------------------------------|-0-------------------------|---------------------------------|
B|-0------0----0-----0---0-----0---|-------3-------------------|---------------------------------|
G|---------------------------------|--------------%----0-------|-0-----------0-----0-------------|
D|---------------------------------|--------------%--------4---|--------2--------------4-----2---|
A|---------------------------------|---------------------------|---------------------------------|
E|---------------------------------|---------------------------|---------------------------------|

E|------------------------|------------------------------------|---------|-------------------------|
B|------------------------|------------------------------------|---------|-0-----------------------|
G|-0------------%---------|-0-----------0----0----0------------|---------|-------2-----0-----2-----|
D|-------2------%----2----|--------2-------------------4---2---|-4-------|-------------------------|
A|------------------------|------------------------------------|---------|-------------------------|
E|------------------------|------------------------------------|---------|-------------------------|

E|-------------------|-------------------------|---------|-------------------------|
B|-------------------|-------------------------|---------|-0-----------------------|
G|-2-------%---------|-0-----------------------|---------|-------2-----0-----2-----|
D|---------%----2----|-------4-----2-----4-----|---------|-------------------------|
A|-------------------|-------------------------|-2-------|-------------------------|
E|-------------------|-------------------------|---------|-------------------------|

E|-------------------|-------------------------|---------|---------|---------|---------|
B|-------------------|-------------------------|---------|---------|---------|---------|
G|-2-------%---------|-0-----------------------|---------|-%-------|-%-------|-%-------|
D|---------%----2----|-------4-----2-----4-----|-2-------|-%-------|-%-------|-%-------|
A|-------------------|-------------------------|---------|---------|---------|---------|
E|-------------------|-------------------------|---------|---------|---------|---------|

E|---------|---------|---------|---------|---------|---------|---------|---------|---------|
B|---------|---------|---------|---------|---------|---------|---------|---------|---------|
G|-%-------|-%-------|-%-------|-%-------|-%-------|-%-------|-%-------|-%-------|-%-------|
D|-%-------|-%-------|-%-------|-%-------|-%-------|-%-------|-%-------|-%-------|-%-------|
A|---------|---------|---------|---------|---------|---------|---------|---------|---------|
E|---------|---------|---------|---------|---------|---------|---------|---------|---------|

E|---------|---------|---------|---------|---------|---------|---------|---------|---------|
B|---------|---------|---------|---------|---------|---------|---------|---------|---------|
G|-%-------|-%-------|-%-------|-%-------|-%-------|-%-------|-%-------|-%-------|-%-------|
D|-%-------|-%-------|-%-------|-%-------|-%-------|-%-------|-%-------|-%-------|-%-------|
A|---------|---------|---------|---------|---------|---------|---------|---------|---------|
E|---------|---------|---------|---------|---------|---------|---------|---------|---------|

E|---------|---------|---------|---------|-------------------------|-------------------|
B|---------|---------|---------|---------|-0-----------------------|-------------------|
G|-%-------|-%-------|-%-------|-%-------|-------2-----0-----2-----|-2-------%---------|
D|-%-------|-%-------|-%-------|-%-------|-------------------------|---------%----2----|
A|---------|---------|---------|---------|-------------------------|-------------------|
E|---------|---------|---------|---------|-------------------------|-------------------|

E|-------------------------|---------|-------------------------|-------------------|
B|-------------------------|---------|-0-----------------------|-------------------|
G|-0-----------------------|---------|-------2-----0-----2-----|-2-------%---------|
D|-------4-----2-----4-----|---------|-------------------------|---------%----2----|
A|-------------------------|-2-------|-------------------------|-------------------|
E|-------------------------|---------|-------------------------|-------------------|

E|-------------------------|---------|---------|------------|------------|------------|
B|-------------------------|---------|---------|------------|------------|------------|
G|-0-----------------------|---------|-%-------|-%-----%----|-%-----%----|-%-----%----|
D|-------4-----2-----4-----|-2-------|-%-------|-%-----%----|-%-----%----|-%-----%----|
A|-------------------------|---------|---------|------------|------------|------------|
E|-------------------------|---------|---------|------------|------------|------------|

E|------------|------------|------------|------------|------------|------------|------------|
B|------------|------------|------------|------------|------------|------------|------------|
G|-%-----%----|-%-----%----|-%-----%----|-%-----%----|-%-----%----|-%-----%----|-%-----%----|
D|-%-----%----|-%-----%----|-%-----%----|-%-----%----|-%-----%----|-%-----%----|-%-----%----|
A|------------|------------|------------|------------|------------|------------|------------|
E|------------|------------|------------|------------|------------|------------|------------|

E|------------|------------|------------|------------|------------|------------|---------|
B|------------|------------|------------|------------|------------|------------|---------|
G|-%-----%----|-%-----%----|-%-----%----|-%-----%----|-%-----%----|-%-----%----|-%-------|
D|-%-----%----|-%-----%----|-%-----%----|-%-----%----|-%-----%----|-%-----%----|-%-------|
A|------------|------------|------------|------------|------------|------------|---------|
E|------------|------------|------------|------------|------------|------------|---------|
Iron Maiden - Quest For Fire
Iron Maiden - Quest For Fire.gp3