Iron Maiden - Reach Out

Iron Maiden



Title: Reach Out
Album: Somewhere In Time B-Side
Artist: Iron Maiden
Author: 

Track 1: Dist. Guitar 1
E|-12-------------12-------------12--------|-12-------------12-------------12--------|
B|------12-------------12------------------|------12-------------12------------------|
G|-----------9--------------9---------9----|-----------9--------------9---------9----|
D|-----------------------------------------|-----------------------------------------|
A|-----------------------------------------|-----------------------------------------|
E|-----------------------------------------|-----------------------------------------|

E|-9--------------9--------------9---------|-7------------------------7--------------|
B|------12-------------12------------------|------7--------------7---------7---------|
G|-----------9--------------9---------9----|----------------9-------------------9----|
D|-----------------------------------------|-----------9-----------------------------|
A|-----------------------------------------|-----------------------------------------|
E|-----------------------------------------|-----------------------------------------|

E|-12-------------12-------------12--------|-12-------------12-------------12--------|
B|------12-------------12------------------|------12-------------12------------------|
G|-----------9--------------9---------9----|-----------9--------------9---------9----|
D|-----------------------------------------|-----------------------------------------|
A|-----------------------------------------|-----------------------------------------|
E|-----------------------------------------|-----------------------------------------|

E|-9--------------9--------------9---------|-7------------------------7--------------|
B|------12-------------12------------------|------7--------------7---------7---------|
G|-----------9--------------9---------9----|----------------9-------------------9----|
D|-----------------------------------------|-----------9-----------------------------|
A|-----------------------------------------|-----------------------------------------|
E|-----------------------------------------|-----------------------------------------|

E|-12-------------12-------------12--------|-12-------------12-------------12--------|
B|------12-------------12------------------|------12-------------12------------------|
G|-----------9--------------9---------9----|-----------9--------------9---------9----|
D|-----------------------------------------|-----------------------------------------|
A|-----------------------------------------|-----------------------------------------|
E|-----------------------------------------|-----------------------------------------|

E|-9--------------9--------------9---------|-7------------------------7--------------|
B|------12-------------12------------------|------7--------------7---------7---------|
G|-----------9--------------9---------9----|----------------9-------------------9----|
D|-----------------------------------------|-----------9-----------------------------|
A|-----------------------------------------|-----------------------------------------|
E|-----------------------------------------|-----------------------------------------|

E|---------------------|-------------------------|---------------------------------|
B|---------------------|-------------------------|----------------10---10----9-----|
G|-7------7------2-----|-2-----------------------|----------------9----9-----9-----|
D|-7------7------2-----|-2-----------------------|---------------------------------|
A|-5------5------0-----|-0-----0-----0-----0-----|---------------------------------|
E|---------------------|-------------------------|-0----0----0---------------------|

E|---------------------------------|-----------------------------------------|---------|
B|----------------10---10----9-----|------------------------------------2----|-2-------|
G|----------------9----9-----9-----|-6----6---------2----2---------4----4----|-4-------|
D|---------------------------------|-6----6---------2----2---------4----4----|-4-------|
A|-0----0----0---------------------|-4----4----X----0----0----X----2----2----|-2-------|
E|---------------------------------|-----------------------------------------|---------|

E|---------------------------------|---------------------------------|-----------------------------------------|
B|----------------10---10----9-----|----------------10---10----9-----|------------------------------------2----|
G|----------------9----9-----9-----|----------------9----9-----9-----|-6----6---------2----2---------4----4----|
D|---------------------------------|---------------------------------|-6----6---------2----2---------4----4----|
A|---------------------------------|-0----0----0---------------------|-4----4----X----0----0----X----2----2----|
E|-0----0----0---------------------|---------------------------------|-----------------------------------------|

E|---------|-----------------------------------------|-----------------------------------------|
B|-2-------|----------------10-------------9---------|----------------10-------------9---------|
G|-4-------|-9----9----9----9----9----9----9----9----|----------------9--------------9---------|
D|-4-------|-----------------------------------------|-7----7----7---------7----7---------7----|
A|-2-------|-----------------------------------------|-----------------------------------------|
E|---------|-----------------------------------------|-----------------------------------------|

E|-----------------------------------------|-------------------------------------|-----------------------------------------|
B|----------------10-------------9---------|----------------10-------------9-----|----------------10-------------9---------|
G|----------------9--------------9---------|----------------9--------------9-----|-9----9----9----9----9----9----9----9----|
D|-11---11---11--------11---11--------11---|-9----9----9---------9----9----------|-----------------------------------------|
A|-----------------------------------------|-------------------------------------|-----------------------------------------|
E|-----------------------------------------|-------------------------------------|-----------------------------------------|

E|-----------------------------------------|-----------------------------------------|
B|----------------10-------------9---------|----------------10-------------9---------|
G|----------------9--------------9---------|----------------9--------------9---------|
D|-7----7----7---------7----7---------7----|-11---11---11--------11---11--------11---|
A|-----------------------------------------|-----------------------------------------|
E|-----------------------------------------|-----------------------------------------|

E|-------------------------------------|-----------------------------------------|-----------------------------------------|
B|-5-----5----4---------5----4---------|----------------7----7----5----4---------|----------------7----7----5----4---------|
G|-4---------------4--------------4----|-4----6----6------------------------4----|-4----6----6------------------------4----|
D|-------------------------------------|-----------------------------------------|-----------------------------------------|
A|-------------------------------------|-----------------------------------------|-----------------------------------------|
E|-------------------------------------|-----------------------------------------|-----------------------------------------|

E|-----------------------------------------|-------------------------------------|---------------------------------|
B|----------------7----7----5----4---------|----------------7----7----5----4-----|-------4----5----5-----4---------|
G|-4----6----6------------------------4----|-4----6----6-------------------------|-%--------------------------4----|
D|-----------------------------------------|-------------------------------------|-%-------------------------------|
A|-----------------------------------------|-------------------------------------|---------------------------------|
E|-----------------------------------------|-------------------------------------|---------------------------------|

E|---------------------------------|-------------------------------------|-------------------------------------|
B|-------4----5----5-----4---------|-------4----5----5----4----4---------|-------4----5----5----4----4---------|
G|-4--------------------------4----|-4------------------------------4----|-4------------------------------4----|
D|---------------------------------|-------------------------------------|-------------------------------------|
A|---------------------------------|-------------------------------------|-------------------------------------|
E|---------------------------------|-------------------------------------|-------------------------------------|

E|-------------------------------------|------------------------|-------------------------------------|
B|-------4----5----5----4----4---------|-------4----5----5------|-------------------------------------|
G|-4------------------------------4----|-4----------------------|-7----7----X----7----7----6----2-----|
D|-------------------------------------|------------------------|-7----7----X----7----7----6----2-----|
A|-------------------------------------|------------------------|-5----5----X----5----5----4----0-----|
E|-------------------------------------|------------------------|-------------------------------------|

E|---------|-----------------------------------------|-----------------------------------------|
B|---------|----------------10-------------9---------|----------------10-------------9---------|
G|-2-------|-9----9----9----9----9----9----9----9----|----------------9--------------9---------|
D|-2-------|-----------------------------------------|-7----7----7---------7----7---------7----|
A|-0-------|-----------------------------------------|-----------------------------------------|
E|---------|-----------------------------------------|-----------------------------------------|

E|-----------------------------------------|-------------------------------------|-----------------------------------------|
B|----------------10-------------9---------|----------------10-------------9-----|----------------10-------------9---------|
G|----------------9--------------9---------|----------------9--------------9-----|-9----9----9----9----9----9----9----9----|
D|-11---11---11--------11---11--------11---|-9----9----9---------9----9----------|-----------------------------------------|
A|-----------------------------------------|-------------------------------------|-----------------------------------------|
E|-----------------------------------------|-------------------------------------|-----------------------------------------|

E|-----------------------------------------|-----------------------------------------|
B|----------------10-------------9---------|----------------10-------------9---------|
G|----------------9--------------9---------|----------------9--------------9---------|
D|-7----7----7---------7----7---------7----|-11---11---11--------11---11--------11---|
A|-----------------------------------------|-----------------------------------------|
E|-----------------------------------------|-----------------------------------------|

E|-------------------------------------|-----------------------------------------|-----------------------------------------|
B|-5-----5----4---------5----4---------|----------------7----7----5----4---------|----------------7----7----5----4---------|
G|-4---------------4--------------4----|-4----6----6------------------------4----|-4----6----6------------------------4----|
D|-------------------------------------|-----------------------------------------|-----------------------------------------|
A|-------------------------------------|-----------------------------------------|-----------------------------------------|
E|-------------------------------------|-----------------------------------------|-----------------------------------------|

E|-----------------------------------------|-------------------------------------|---------------------------------|
B|----------------7----7----5----4---------|----------------7----7----5----4-----|-------4----5----5-----4---------|
G|-4----6----6------------------------4----|-4----6----6-------------------------|-%--------------------------4----|
D|-----------------------------------------|-------------------------------------|-%-------------------------------|
A|-----------------------------------------|-------------------------------------|---------------------------------|
E|-----------------------------------------|-------------------------------------|---------------------------------|

E|---------------------------------|-------------------------------------|-------------------------------------|
B|-------4----5----5-----4---------|-------4----5----5----4----4---------|-------4----5----5----4----4---------|
G|-4--------------------------4----|-4------------------------------4----|-4------------------------------4----|
D|---------------------------------|-------------------------------------|-------------------------------------|
A|---------------------------------|-------------------------------------|-------------------------------------|
E|---------------------------------|-------------------------------------|-------------------------------------|

E|-------------------------------------|------------------------|---------------------------------|
B|-------4----5----5----4----4---------|-------4----5----5------|-------4----5----5-----4---------|
G|-4------------------------------4----|-4----------------------|-%--------------------------4----|
D|-------------------------------------|------------------------|-%-------------------------------|
A|-------------------------------------|------------------------|---------------------------------|
E|-------------------------------------|------------------------|---------------------------------|

E|---------------------------------|-------------------------------------|-------------------------------------|
B|-------4----5----5-----4---------|-------4----5----5----4----4---------|-------4----5----5----4----4---------|
G|-4--------------------------4----|-4------------------------------4----|-4------------------------------4----|
D|---------------------------------|-------------------------------------|-------------------------------------|
A|---------------------------------|-------------------------------------|-------------------------------------|
E|---------------------------------|-------------------------------------|-------------------------------------|

E|-------------------------------------|------------------------|-------------------------------------|
B|-------4----5----5----4----4---------|-------4----5----5------|-------------------------------------|
G|-4------------------------------4----|-4----------------------|-7----7----X----7----7----6----2-----|
D|-------------------------------------|------------------------|-7----7----X----7----7----6----2-----|
A|-------------------------------------|------------------------|-5----5----X----5----5----4----0-----|
E|-------------------------------------|------------------------|-------------------------------------|

E|---------|-------------------------|---------------------------------|-------------------------|
B|---------|-9---7-------7---9-------|-9----10---------------10---9----|-9---7-------7---9-------|
G|-2-------|---------9---------------|-----------%-----%---------------|---------9---------------|
D|-2-------|-------------------------|-----------%-----%---------------|-------------------------|
A|-0-------|-------------------------|---------------------------------|-------------------------|
E|---------|-------------------------|---------------------------------|-------------------------|

E|-------------------------------------|-------------------------|---------------------------------|
B|-9-----7-----------------------------|-9---7-------7---9-------|-9----10---------------10---9----|
G|-------------9-----8-----6-----------|---------9---------------|-----------%-----%---------------|
D|-------------------------------9-----|-------------------------|-----------%-----%---------------|
A|-------------------------------------|-------------------------|---------------------------------|
E|-------------------------------------|-------------------------|---------------------------------|

E|-------------------------|-------------------------------------|-19----19----19-----|
B|-9---7-------7---9-------|-9-----7-----------------------------|--------------------|
G|---------9---------------|-------------9-----8-----6-----------|--------------------|
D|-------------------------|-------------------------------9-----|--------------------|
A|-------------------------|-------------------------------------|--------------------|
E|-------------------------|-------------------------------------|--------------------|

E|-17---19---17---16---17---17----16---17---|-16---17---16---14---16---16----14---16---14---|
B|------------------------------------------|-----------------------------------------------|
G|------------------------------------------|-----------------------------------------------|
D|------------------------------------------|-----------------------------------------------|
A|------------------------------------------|-----------------------------------------------|
E|------------------------------------------|-----------------------------------------------|

E|-12---14---12---11---12---12----------|-----------9---------12---11---9---------|
B|--------------------------------------|------9---------9-------------------12---|
G|--------------------------------11----|-11--------------------------------------|
D|--------------------------------------|-----------------------------------------|
A|--------------------------------------|-----------------------------------------|
E|--------------------------------------|-----------------------------------------|

E|------9---------------------------------------|--------------------------11---12---14---|
B|-12--------10---12---10---9-------------------|----------------12---14------------------|
G|-------------------------------11---9----8----|-9----13---14----------------------------|
D|----------------------------------------------|-----------------------------------------|
A|----------------------------------------------|-----------------------------------------|
E|----------------------------------------------|-----------------------------------------|

E|-19------|-----------------------------------------|-----------------------------------------|
B|---------|----------------10-------------9---------|----------------10-------------9---------|
G|---------|-9----9----9----9----9----9----9----9----|----------------9--------------9---------|
D|---------|-----------------------------------------|-7----7----7---------7----7---------7----|
A|---------|-----------------------------------------|-----------------------------------------|
E|---------|-----------------------------------------|-----------------------------------------|

E|-----------------------------------------|-------------------------------------|-----------------------------------------|
B|----------------10-------------9---------|----------------10-------------9-----|----------------10-------------9---------|
G|----------------9--------------9---------|----------------9--------------9-----|-9----9----9----9----9----9----9----9----|
D|-11---11---11--------11---11--------11---|-9----9----9---------9----9----------|-----------------------------------------|
A|-----------------------------------------|-------------------------------------|-----------------------------------------|
E|-----------------------------------------|-------------------------------------|-----------------------------------------|

E|-----------------------------------------|-----------------------------------------|
B|----------------10-------------9---------|----------------10-------------9---------|
G|----------------9--------------9---------|----------------9--------------9---------|
D|-7----7----7---------7----7---------7----|-11---11---11--------11---11--------11---|
A|-----------------------------------------|-----------------------------------------|
E|-----------------------------------------|-----------------------------------------|

E|-------------------------------------|-----------------------------------------|-----------------------------------------|
B|-5-----5----4---------5----4---------|----------------7----7----5----4---------|----------------7----7----5----4---------|
G|-4---------------4--------------4----|-4----6----6------------------------4----|-4----6----6------------------------4----|
D|-------------------------------------|-----------------------------------------|-----------------------------------------|
A|-------------------------------------|-----------------------------------------|-----------------------------------------|
E|-------------------------------------|-----------------------------------------|-----------------------------------------|

E|-----------------------------------------|-------------------------------------|---------------------------------|
B|----------------7----7----5----4---------|----------------7----7----5----4-----|-------4----5----5-----4---------|
G|-4----6----6------------------------4----|-4----6----6-------------------------|-%--------------------------4----|
D|-----------------------------------------|-------------------------------------|-%-------------------------------|
A|-----------------------------------------|-------------------------------------|---------------------------------|
E|-----------------------------------------|-------------------------------------|---------------------------------|

E|---------------------------------|-------------------------------------|-------------------------------------|
B|-------4----5----5-----4---------|-------4----5----5----4----4---------|-------4----5----5----4----4---------|
G|-4--------------------------4----|-4------------------------------4----|-4------------------------------4----|
D|---------------------------------|-------------------------------------|-------------------------------------|
A|---------------------------------|-------------------------------------|-------------------------------------|
E|---------------------------------|-------------------------------------|-------------------------------------|

E|-------------------------------------|------------------------|---------------------------------|
B|-------4----5----5----4----4---------|-------4----5----5------|-------4----5----5-----4---------|
G|-4------------------------------4----|-4----------------------|-%--------------------------4----|
D|-------------------------------------|------------------------|-%-------------------------------|
A|-------------------------------------|------------------------|---------------------------------|
E|-------------------------------------|------------------------|---------------------------------|

E|---------------------------------|-------------------------------------|-------------------------------------|
B|-------4----5----5-----4---------|-------4----5----5----4----4---------|-------4----5----5----4----4---------|
G|-4--------------------------4----|-4------------------------------4----|-4------------------------------4----|
D|---------------------------------|-------------------------------------|-------------------------------------|
A|---------------------------------|-------------------------------------|-------------------------------------|
E|---------------------------------|-------------------------------------|-------------------------------------|

E|-------------------------------------|------------------------|-----------------------------------------|
B|-------4----5----5----4----4---------|-------4----5----5------|-----------------------------------------|
G|-4------------------------------4----|-4----------------------|-----------------------------------------|
D|-------------------------------------|------------------------|-2----2----2----1----1----1--------------|
A|-------------------------------------|------------------------|-------------------------------4----4----|
E|-------------------------------------|------------------------|-----------------------------------------|

E|---------------------------------|---------------------------------|---------------------------------|
B|---------------------------------|-------4----5----5-----4---------|-------4----5----5-----4---------|
G|---------------------------------|-%--------------------------4----|-4--------------------------4----|
D|---------------------------------|-%-------------------------------|---------------------------------|
A|-4----2----2----2----0-----2-----|---------------------------------|---------------------------------|
E|---------------------------------|---------------------------------|---------------------------------|

E|-------------------------------------|-------------------------------------|-------------------------------------|
B|-------4----5----5----4----4---------|-------4----5----5----4----4---------|-------4----5----5----4----4---------|
G|-4------------------------------4----|-4------------------------------4----|-4------------------------------4----|
D|-------------------------------------|-------------------------------------|-------------------------------------|
A|-------------------------------------|-------------------------------------|-------------------------------------|
E|-------------------------------------|-------------------------------------|-------------------------------------|

E|------------------------|-------------------------------------|---------|---------------------------------|
B|-------4----5----5------|-------------------------------------|---------|----------------10---10----9-----|
G|-4----------------------|-7----7----X----7----7----6----2-----|-2-------|----------------9----9-----9-----|
D|------------------------|-7----7----X----7----7----6----2-----|-2-------|---------------------------------|
A|------------------------|-5----5----X----5----5----4----0-----|-0-------|---------------------------------|
E|------------------------|-------------------------------------|---------|-0----0----0---------------------|

E|---------------------------------|-----------------------------------------|---------|
B|----------------10---10----9-----|------------------------------------2----|-2-------|
G|----------------9----9-----9-----|-6----6---------2----2---------4----4----|-4-------|
D|---------------------------------|-6----6---------2----2---------4----4----|-4-------|
A|-0----0----0---------------------|-4----4----X----0----0----X----2----2----|-2-------|
E|---------------------------------|-----------------------------------------|---------|

E|---------------------------------|---------------------------------|-----------------------------------------|
B|----------------10---10----9-----|----------------10---10----9-----|------------------------------------2----|
G|----------------9----9-----9-----|----------------9----9-----9-----|-6----6---------2----2---------4----4----|
D|---------------------------------|---------------------------------|-6----6---------2----2---------4----4----|
A|---------------------------------|-0----0----0---------------------|-4----4----X----0----0----X----2----2----|
E|-0----0----0---------------------|---------------------------------|-----------------------------------------|

E|---------|---------|---------------------------------------|
B|-2-------|-2-------|-9---7-------7---9---------------------|
G|-4-------|-4-------|---------9------------%----%-----%-----|
D|-4-------|-4-------|----------------------%----%-----%-----|
A|-2-------|-2-------|---------------------------------------|
E|---------|---------|---------------------------------------|
Iron Maiden - Reach Out
Iron Maiden - Reach Out.gp3