Iron Maiden - Remember Tomorrow

Iron Maiden



Title: Remember Tomorrow
Album: 
Artist: 
Author: Iron Maiden

Track 1: Guitar I
E|---------|-------12-----10----|-10-----------7----5----|-5-------|-------12-----10----|
B|---------|--------------------|------------------------|---------|--------------------|
G|-%-------|-%------------------|--------%---------------|---------|-%------------------|
D|-%-------|-%------------------|--------%---------------|---------|-%------------------|
A|---------|--------------------|------------------------|---------|--------------------|
E|---------|--------------------|------------------------|---------|--------------------|

E|-10-----------7----5----|-5-------|---------|------7--------------7--------------7----|
B|------------------------|---------|---------|-----------8--------------8--------------|
G|--------%---------------|---------|-%-------|-9--------------9--------------9---------|
D|--------%---------------|---------|-%-------|-----------------------------------------|
A|------------------------|---------|---------|-----------------------------------------|
E|------------------------|---------|---------|-----------------------------------------|

E|-----------7--------------7--------------|-8--------------8--------------8---------|
B|-8--------------8--------------8---------|------10-------------10-------------10---|
G|------9--------------9--------------9----|-----------10-------------10-------------|
D|-----------------------------------------|-----------------------------------------|
A|-----------------------------------------|-----------------------------------------|
E|-----------------------------------------|-----------------------------------------|

E|-7--------------7---------7---------7----|-----------7--------------7--------------|
B|------8------------------------8---------|-8--------------8--------------8---------|
G|-----------9---------9-------------------|------9--------------9--------------9----|
D|-----------------------------------------|-----------------------------------------|
A|-----------------------------------------|-----------------------------------------|
E|-----------------------------------------|-----------------------------------------|

E|-7--------------7--------------7---------|-8--------------8--------------8---------|
B|------8--------------8-------------------|------10-------------10------------------|
G|-----------9--------------9---------9----|-----------10-------------10--------10---|
D|-----------------------------------------|-----------------------------------------|
A|-----------------------------------------|-----------------------------------------|
E|-----------------------------------------|-----------------------------------------|

E|-7--------------7----------7-----|-------7--------------7--------------|-7--------------7--------------7-----|
B|------8--------------8-----7-----|------------8--------------8---------|------8--------------8---------------|
G|-----------9---------------------|-9---------------9--------------9----|-----------9--------------9----------|
D|---------------------------------|-------------------------------------|-------------------------------------|
A|---------------------------------|-------------------------------------|-------------------------------------|
E|---------------------------------|-------------------------------------|-------------------------------------|

E|-8--------------8--------------8---------|-7--------------7--------------7---------|
B|------10-------------10------------------|------8--------------8--------------8----|
G|-----------10-------------10--------10---|-----------9--------------9--------------|
D|-----------------------------------------|-----------------------------------------|
A|-----------------------------------------|-----------------------------------------|
E|-----------------------------------------|-----------------------------------------|

E|-------7----------7--------------|-7--------------7--------------7---------|-8--------------8--------------8---------|
B|-----------------------8---------|------8--------------8-------------------|------10-------------10------------------|
G|-9-----------9--------------9----|-----------9--------------9---------9----|-----------10-------------10--------10---|
D|---------------------------------|-----------------------------------------|-----------------------------------------|
A|---------------------------------|-----------------------------------------|-----------------------------------------|
E|---------------------------------|-----------------------------------------|-----------------------------------------|

E|-7--------------7----------------|--------------------------------------------|-----------------------------------------------------|
B|------8--------------8-----------|--------------------------------------------|-----------------------------------------------------|
G|-----------9---------------------|--------------------------------------------|-----------------------------------------------------|
D|---------------------------------|--------------------------------------------|-----------------------------------------------------|
A|---------------------------7-----|----------------2----2---2---2--------------|----------------3----3---3---3---3---3---2-----------|
E|---------------------------------|-0-----0---0----------------------3----2----|-3-----3---3---------------------------------3---2---|

E|--------------------------------------------|-----------------------------------------------------|
B|--------------------------------------------|-----------------------------------------------------|
G|--------------------------------------------|-----------------------------------------------------|
D|--------------------------------------------|-----------------------------------------------------|
A|----------------2----2---2---2--------------|----------------3----3---3---3---3---3---2-----------|
E|-0-----0---0----------------------3----2----|-3-----3---3---------------------------------3---2---|

E|--------------------------------------------|-----------------------------------------------------|
B|--------------------------------------------|-----------------------------------------------------|
G|--------------------------------------------|-----------------------------------------------------|
D|--------------------------------------------|-----------------------------------------------------|
A|----------------2----2---2---2--------------|----------------3----3---3---3---3---3---2-----------|
E|-0-----0---0----------------------3----2----|-3-----3---3---------------------------------3---2---|

E|--------------------------------------------|----------------------------|------7----------7--------------7----|
B|--------------------------------------------|----------------------------|----------------------8--------------|
G|--------------------------------------------|----------------------------|-%----------9--------------9---------|
D|--------------------------------------------|----------------------------|-%-----------------------------------|
A|----------------2----2---2---2--------------|----------------3----3------|-------------------------------------|
E|-0-----0---0----------------------3----2----|-3-----3---3----------------|-------------------------------------|

E|-----------7--------------7--------------|-7--------------7--------------7---------|
B|-8--------------8--------------8---------|------8--------------8--------------8----|
G|------9--------------9--------------9----|-----------9--------------9--------------|
D|-----------------------------------------|-----------------------------------------|
A|-----------------------------------------|-----------------------------------------|
E|-----------------------------------------|-----------------------------------------|

E|------7--------------7-----5-----|--------------------------------------------|-----------------------------------------------|
B|-----------8---------8-----7-----|--------------------------------------------|-----------------------------------------------|
G|-9--------------9----------------|--------------------------------------------|-----------------------------------------------|
D|---------------------------------|--------------------------------------------|------------------------------------------0----|
A|---------------------------------|----------------2----2---2---2--------------|----------------3----3---3---3---3---3---------|
E|---------------------------------|-0-----0---0----------------------3----2----|-3-----3---3-----------------------------------|

E|--------------------------------------------------|-----------------------------------------------------|
B|--------------------------------------------------|-----------------------------------------------------|
G|-7---7----X---7---7----X---7---7----X---5----5----|-7---7----X---7---7----X-------5----5---5---5---5----|
D|-7---7----X---7---7----X---7---7----X---5----5----|-7---7----X---7---7----X---X---5----5---5---5---5----|
A|-5---5----X---5---5----X---5---5----X---3----3----|-5---5----X---5---5----X---X---3----3---3---3---3----|
E|--------------------------------------------------|---------------------------X-------------------------|

E|--------------------------------------------------|-----------------------------|
B|--------------------------------------------------|-----------------------------|
G|-7---7----X---7---7----X---7---7----X---5----5----|-----------------------------|
D|-7---7----X---7---7----X---7---7----X---5----5----|-12-----14---14----10--14----|
A|-5---5----X---5---5----X---5---5----X---3----3----|-----------------------------|
E|--------------------------------------------------|-----------------------------|

E|----------------------------------|--------------------------------------------------------|
B|----------------------------------|--------------------------------------------------------|
G|----------------------------------|--------------------------------------------------------|
D|-10-----12--12--X---10--10---10---|-10--12--12--12--12---12--12--12--10---10--10--10--10---|
A|----------------------------------|--------------------------------------------------------|
E|----------------------------------|--------------------------------------------------------|

E|-----------------------------------------------------------------|---------------------------------------12--------|
B|-----------------------------------------------------------------|-----------------10--12--12--12--12----12---15---|
G|---------------------------------9---10--10--10--10--12--12--12--|-12--14--14--14----------------------------------|
D|-10--12--12--12--12--14--14--14----------------------------------|-------------------------------------------------|
A|-----------------------------------------------------------------|-------------------------------------------------|
E|-----------------------------------------------------------------|-------------------------------------------------|

E|-----------------------12-----------|--------------------------------------------------------------------|
B|-15----12---15---15--------15---13--|-12--13--12--10--12--10---------------------------------------------|
G|------------------------------------|-------------------------12--14--12--11--12--11---------------------|
D|------------------------------------|-------------------------------------------------14--12---14--14----|
A|------------------------------------|--------------------------------------------------------------------|
E|------------------------------------|--------------------------------------------------------------------|

E|--------------12--14--15--14--12-----------------------12-14-15-14-|-12-----------------------------------------------------|
B|-12---14--15-----------------------15---14-------14-15-------------|-----15--14--12--14--12------12--12--15---15--15---12---|
G|--------------------------------------------12---------------------|-------------------------14-----------------------------|
D|-------------------------------------------------------------------|--------------------------------------------------------|
A|-------------------------------------------------------------------|--------------------------------------------------------|
E|-------------------------------------------------------------------|--------------------------------------------------------|

E|------------12--14--15--14--12------12--14--15--14--17--|-18----17--15--17---18--18--18---18--18---12---|
B|-12-----15----------------------15----------------------|-----------------------------------------------|
G|--------------------------------------------------------|-----------------------------------------------|
D|--------------------------------------------------------|-----------------------------------------------|
A|--------------------------------------------------------|-----------------------------------------------|
E|--------------------------------------------------------|-----------------------------------------------|

E|-19----21--19--18--17--18--17--15---15----|-15----15----12---10--12--12---12---|--------------------------------------------------|
B|------------------------------------------|------------------------------------|--------------------------------------------------|
G|------------------------------------------|------------------------------------|----------------5----5---5---5---5---5---3--------|
D|------------------------------------------|------------------------------------|---------------------------------------------5----|
A|------------------------------------------|------------------------------------|-3-----3---3--------------------------------------|
E|------------------------------------------|------------------------------------|--------------------------------------------------|

E|--------------------------------------------------------|-----------------------------------------------------|
B|--------------------------------------------------------|-----------------------------------------------------|
G|----------------------7----7---7---7---7---7---5--------|-------------------4----4---4---4---4---4---2--------|
D|---------------------------------------------------7----|------------------------------------------------4----|
A|-5---5----5---5---5-------------------------------------|-2---2----2---2--------------------------------------|
E|--------------------------------------------------------|-----------------------------------------------------|

E|-----------------------------------------------------|--------------------------------------------------|
B|-----------------------------------------------------|--------------------------------------------------|
G|-------------------5----5---5---5---5---5---3--------|----------------5----5---5---5---5---5---3--------|
D|------------------------------------------------5----|---------------------------------------------5----|
A|-3---3----3---3--------------------------------------|-3-----3---3--------------------------------------|
E|-----------------------------------------------------|--------------------------------------------------|

E|--------------------------------------------------------|-----------------------------------------------------|
B|--------------------------------------------------------|-----------------------------------------------------|
G|----------------------7----7---7---7---7---7---5--------|-------------------4----4---4---4---4---4---2--------|
D|---------------------------------------------------5----|------------------------------------------------4----|
A|-5---5----5---5---5-------------------------------------|-2---2----2---2--------------------------------------|
E|--------------------------------------------------------|-----------------------------------------------------|

E|-----------------------------------------------------|-------------------------------------------------------------------|
B|-----------------------------------------------------|-13--15--13--12--13--12--------------------------------------------|
G|-----------------------------------------------------|-------------------------14--17--14--12--11--12--11------11--------|
D|-5---5---5---5---5----5----7---7---7---7---7----7----|-----------------------------------------------------14-------14---|
A|-3---3---3---3---3----3----5---5---5---5---5----5----|-------------------------------------------------------------------|
E|-----------------------------------------------------|-------------------------------------------------------------------|

E|------------------------------------------|------------------------------------------------------|
B|------------------------------------------|-15-------15-------15---15----15--17--15--12------15--|
G|------%------------------------------%----|------%-------%-------------------------------14------|
D|-14---%---14--14--12------14--16-----%----|------%-------%---------------------------------------|
A|----------------------15------------------|------------------------------------------------------|
E|------------------------------------------|------------------------------------------------------|

E|----------------------12------|-12-------12-------12---12----12----|-17--15--12--17--15--12--15---12-----12---|
B|--------------12--15----------|------------------------------------|------------------------------------------|
G|-14-----%-----------------%---|------%-------%---------------------|------------------------------------------|
D|--------%-----------------%---|------%-------%---------------------|------------------------------------------|
A|------------------------------|------------------------------------|------------------------------------------|
E|------------------------------|------------------------------------|------------------------------------------|

E|-15--17--15--14--15--12--14--12------12----------------------------------|----------------------------------------|
B|---------------------------------15------15------13------12--13--12------|-12--13--15--13--12---------------------|
G|---------------------------------------------%-------%---------------14--|---------------------14--12--14--14-----|
D|---------------------------------------------%-------%-------------------|----------------------------------------|
A|-------------------------------------------------------------------------|----------------------------------------|
E|-------------------------------------------------------------------------|----------------------------------------|

E|-----------------------------------------------------|----------------------------------|
B|-----------------------------------------------------|----------------------------------|
G|-------------------4----4---4---4---4---4---2--------|----------------------------------|
D|------------------------------------------------4----|-5---5----5---5---5---5----7------|
A|-2---2----2---2--------------------------------------|---------------------------5------|
E|-----------------------------------------------------|----------------------------------|

E|------7--------------7--------------7----|-----------7--------------7--------------|
B|-----------8--------------8--------------|-8--------------8--------------8---------|
G|-%--------------9--------------9---------|------9--------------9--------------9----|
D|-%---------------------------------------|-----------------------------------------|
A|-----------------------------------------|-----------------------------------------|
E|-----------------------------------------|-----------------------------------------|

E|-8--------------8--------------8---------|-7--------------7---------7--------------|
B|------10-------------10------------------|------8------------------------8---------|
G|-----------10-------------10--------10---|-----------9---------9--------------9----|
D|-----------------------------------------|-----------------------------------------|
A|-----------------------------------------|-----------------------------------------|
E|-----------------------------------------|-----------------------------------------|

E|-7--------------7--------------7---------|------7--------------7-------------------|
B|------8--------------8--------------8----|-----------8--------------8---------8----|
G|-----------9--------------9--------------|-9--------------9--------------9---------|
D|-----------------------------------------|-----------------------------------------|
A|-----------------------------------------|-----------------------------------------|
E|-----------------------------------------|-----------------------------------------|

E|-8--------------8--------------8---------|------7-------------------7--------------|
B|------10-------------10------------------|-----------8-------------------8---------|
G|-----------10-------------10--------10---|-9--------------9----9--------------9----|
D|-----------------------------------------|-----------------------------------------|
A|-----------------------------------------|-----------------------------------------|
E|-----------------------------------------|-----------------------------------------|

E|------7--------------7--------------7----|-----------7--------------7--------------|
B|-----------8--------------8--------------|-8--------------8--------------8---------|
G|-9--------------9--------------9---------|------9--------------9--------------9----|
D|-----------------------------------------|-----------------------------------------|
A|-----------------------------------------|-----------------------------------------|
E|-----------------------------------------|-----------------------------------------|

E|-8--------------8--------------8---------|-7--------------7---------7---------7----|
B|------10-------------10-------------10---|------8------------------------8---------|
G|-----------10-------------10-------------|-----------9---------9-------------------|
D|-----------------------------------------|-----------------------------------------|
A|-----------------------------------------|-----------------------------------------|
E|-----------------------------------------|-----------------------------------------|

E|-----------7--------------7--------------|-7--------------7--------------7---------|
B|-8--------------8--------------8---------|------8--------------8-------------------|
G|------9--------------9--------------9----|-----------9--------------9---------9----|
D|-----------------------------------------|-----------------------------------------|
A|-----------------------------------------|-----------------------------------------|
E|-----------------------------------------|-----------------------------------------|

E|-8--------------8--------------8---------|-7--------------7----------7-----|-------7--------------7--------------|
B|------10-------------10------------------|------8--------------8-----7-----|------------8--------------8---------|
G|-----------10-------------10--------10---|-----------9---------------------|-9---------------9--------------9----|
D|-----------------------------------------|---------------------------------|-------------------------------------|
A|-----------------------------------------|---------------------------------|-------------------------------------|
E|-----------------------------------------|---------------------------------|-------------------------------------|

E|-7--------------7--------------7-----|-8--------------8--------------8---------|-7--------------7--------------7---------|
B|------8--------------8---------------|------10-------------10------------------|------8--------------8--------------8----|
G|-----------9--------------9----------|-----------10-------------10--------10---|-----------9--------------9--------------|
D|-------------------------------------|-----------------------------------------|-----------------------------------------|
A|-------------------------------------|-----------------------------------------|-----------------------------------------|
E|-------------------------------------|-----------------------------------------|-----------------------------------------|

E|-------7----------7--------------|-7--------------7--------------7---------|-8--------------8--------------8---------|
B|-----------------------8---------|------8--------------8-------------------|------10-------------10------------------|
G|-9-----------9--------------9----|-----------9--------------9---------9----|-----------10-------------10--------10---|
D|---------------------------------|-----------------------------------------|-----------------------------------------|
A|---------------------------------|-----------------------------------------|-----------------------------------------|
E|---------------------------------|-----------------------------------------|-----------------------------------------|

E|-7--------------7----------------|--------------------------------------------|-----------------------------------------------------|
B|------8--------------8-----------|--------------------------------------------|-----------------------------------------------------|
G|-----------9---------------------|--------------------------------------------|-----------------------------------------------------|
D|---------------------------------|--------------------------------------------|-----------------------------------------------------|
A|---------------------------7-----|----------------2----2---2---2--------------|----------------3----3---3---3---3---3---2-----------|
E|---------------------------------|-0-----0---0----------------------3----2----|-3-----3---3---------------------------------3---2---|

E|--------------------------------------------|-----------------------------------------------------|
B|--------------------------------------------|-----------------------------------------------------|
G|--------------------------------------------|-----------------------------------------------------|
D|--------------------------------------------|-----------------------------------------------------|
A|----------------2----2---2---2--------------|----------------3----3---3---3---3---3---2-----------|
E|-0-----0---0----------------------3----2----|-3-----3---3---------------------------------3---2---|

E|--------------------------------------------|-----------------------------------------------------|
B|--------------------------------------------|-----------------------------------------------------|
G|--------------------------------------------|-----------------------------------------------------|
D|--------------------------------------------|-----------------------------------------------------|
A|----------------2----2---2---2--------------|----------------3----3---3---3---3---3---2-----------|
E|-0-----0---0----------------------3----2----|-3-----3---3---------------------------------3---2---|

E|--------------------------------------------|-----------------------------------------------------|
B|--------------------------------------------|-----------------------------------------------------|
G|--------------------------------------------|-----------------------------------------------------|
D|--------------------------------------------|-----------------------------------------------------|
A|----------------2----2---2---2--------------|----------------3----3---3---3---3---3---2-----------|
E|-0-----0---0----------------------3----2----|-3-----3---3---------------------------------3---2---|

E|--------------------------------------------|-----------------------------------------------------|
B|--------------------------------------------|-----------------------------------------------------|
G|--------------------------------------------|-----------------------------------------------------|
D|--------------------------------------------|-----------------------------------------------------|
A|----------------2----2---2---2--------------|----------------3----3---3---3---3---3---2-----------|
E|-0-----0---0----------------------3----2----|-3-----3---3---------------------------------3---2---|

E|--------------------------------------------|-----------------------------------------------------|
B|--------------------------------------------|-----------------------------------------------------|
G|--------------------------------------------|-----------------------------------------------------|
D|--------------------------------------------|-----------------------------------------------------|
A|----------------2----2---2---2--------------|----------------3----3---3---3---3---3---2-----------|
E|-0-----0---0----------------------3----2----|-3-----3---3---------------------------------3---2---|

E|--------------------------------------------|-----------------------------------------------------|
B|--------------------------------------------|-----------------------------------------------------|
G|--------------------------------------------|-----------------------------------------------------|
D|--------------------------------------------|-----------------------------------------------------|
A|----------------2----2---2---2--------------|----------------3----3---3---3---3---3---2-----------|
E|-0-----0---0----------------------3----2----|-3-----3---3---------------------------------3---2---|

E|--------------------------------------------|----------------------------|---------|
B|--------------------------------------------|----------------------------|---------|
G|--------------------------------------------|----------------------------|---------|
D|--------------------------------------------|----------------5----5------|-5-------|
A|----------------2----2---2---2--------------|----------------3----3------|-3-------|
E|-0-----0---0----------------------3----2----|-3-----3---3----------------|---------|

E|-0-------|-0-------|-0-------|-0-------|---------|--------------------|
B|-0-------|-0-------|-0-------|-0-------|-9-------|--------------------|
G|-0-------|-0-------|-0-------|-0-------|---------|-9-----%-----%------|
D|-2-------|-2-------|-2-------|-2-------|---------|-9-----%-----%------|
A|-2-------|-2-------|-2-------|-2-------|---------|-7------------------|
E|-0-------|-0-------|-0-------|-0-------|---------|--------------------|
Iron Maiden - Remember Tomorrow
Iron Maiden - Remember Tomorrow.gp3