Iron Maiden - Revelations

Iron Maiden - Revelations

Iron Maiden



Title: Revelations
Album: Piece Of Maiden
Artist: Iron Maiden
Author: Words by Bruce Dickinson

Track 1: Dave (Guitar 1)
E|------------------------------|---------------------------|-------------------------------------------|
B|------------------------------|--------1------------------|-------------------------------------------|
G|-%------%---------2---%-------|-2------0----2---0---------|------5----5----7----7---------2---%-------|
D|-%------%---------2---%-------|-2------2------------2-----|-2----5----5----7----7---------2---%-------|
A|------------------0-----------|-0------3------------3-----|-3----3----3----5----5---------0-----------|
E|--------------3-----------3---|---------------------------|---------------------------3-----------3---|

E|---------------------------|-------------------------------------------|---------------------------|
B|--------1------------------|-------------------------------------------|--------1--------1---------|
G|-2------0----2---0---------|------5----5----7----7---------2---%-------|-2------0----2---0---------|
D|-2------2------------2-----|-2----5----5----7----7---------2---%-------|-2------2--------2---2-----|
A|-0------3------------3-----|-3----3----3----5----5---------0-----------|-0------3--------3---3-----|
E|---------------------------|---------------------------3-----------3---|---------------------------|

E|-------------------------------------------|---------------------------|----------------------------|
B|-------------------------------------------|--------1------------------|----------------------------|
G|------5----5----7----7---------2---%-------|-2------0----2---0---------|------5----5----7----7------|
D|-2----5----5----7----7---------2---%-------|-2------2------------2-----|-2----5----5----7----7------|
A|-3----3----3----5----5---------0-----------|-0------3------------3-----|-3----3----3----5----5------|
E|---------------------------3-----------3---|---------------------------|----------------------------|

E|--------|-----------------1----1----------|-3----3------------------------------|
B|--------|-----------------1----1----------|-3----3------------------------------|
G|-7------|-2----2----%-----2----2----%-----|-4----4----%-----2----2----2---------|
D|-7------|-2----2----%-----3----3----%-----|-5----5----%-----2----2----2---------|
A|-5------|-0----0----------3----3----------|-5----5----------0----0----0---------|
E|--------|-----------------1----1----------|-3----3------------------------3-----|

E|-----------------1----1----------|-3----3------------------------------|-----------------1----1----------|
B|-----------------1----1----------|-3----3------------------------------|-----------------1----1----------|
G|-2----2----%-----2----2----%-----|-4----4----%-----2----2----2---------|-2----2----%-----2----2----%-----|
D|-2----2----%-----3----3----%-----|-5----5----%-----2----2----2---------|-2----2----%-----3----3----%-----|
A|-0----0----------3----3----------|-5----5----------0----0----0---------|-0----0----------3----3----------|
E|-----------------1----1----------|-3----3------------------------3-----|-----------------1----1----------|

E|-3----3------------------------------|-----------------1----1----------|-3----3------------------------------|
B|-3----3------------------------------|-----------------1----1----------|-3----3------------------------------|
G|-4----4----%-----2----2----2---------|-2----2----%-----2----2----%-----|-4----4----%-----2----2----2---------|
D|-5----5----%-----2----2----2---------|-2----2----%-----3----3----%-----|-5----5----%-----2----2----2---------|
A|-5----5----------0----0----0---------|-0----0----------3----3----------|-5----5----------0----0----0---------|
E|-3----3------------------------3-----|-----------------1----1----------|-3----3------------------------3-----|

E|-----------------1----1----------|-3----3------------------------------|-----------------1----1----------|
B|-----------------1----1----------|-3----3------------------------------|-----------------1----1----------|
G|-2----2----%-----2----2----%-----|-4----4----%-----2----2----2---------|-2----2----%-----2----2----%-----|
D|-2----2----%-----3----3----%-----|-5----5----%-----2----2----2---------|-2----2----%-----3----3----%-----|
A|-0----0----------3----3----------|-5----5----------0----0----0---------|-0----0----------3----3----------|
E|-----------------1----1----------|-3----3------------------------3-----|-----------------1----1----------|

E|-3----3---------------------------------|-------------------------------|---------------------------------------------------------|
B|-3----3---------------------------------|-------------------------------|---------------------6---5--6--5-------------------------|
G|-4----4----%-----2----2----%----9---7---|-9------10--9---7------9---7---|-5-----4---------------------------7---5--7--5---9---7---|
D|-5----5----%-----2----2----%------------|-------------------------------|-----------7----5----------------------------------------|
A|-5----5----------0----0-----------------|-------------------------------|---------------------------------------------------------|
E|-3----3---------------------------------|-------------------------------|---------------------------------------------------------|

E|-------------------------------|---------------------------------------------------------|
B|-------------------------------|---------------------6---5--6--5-------------------------|
G|-9------10--9---7------9---7---|-5-----4---------------------------7---5--7--5---9---7---|
D|-------------------------------|-----------7----5----------------------------------------|
A|-------------------------------|---------------------------------------------------------|
E|-------------------------------|---------------------------------------------------------|

E|-------------------------------|---------------------------------------------------------|
B|-------------------------------|---------------------6---5--6--5-------------------------|
G|-9------10--9---7------9---7---|-5-----4---------------------------7---5--7--5---9---7---|
D|-------------------------------|-----------7----5----------------------------------------|
A|-------------------------------|---------------------------------------------------------|
E|-------------------------------|---------------------------------------------------------|

E|-------------------------------|---------------------------------------------------------|
B|-------------------------------|---------------------6---5--6--5-------------------------|
G|-9------10--9---7------9---7---|-5-----4---------------------------7---5--7--5---2---0---|
D|-------------------------------|-----------7----5--------------------------------2---0---|
A|-------------------------------|-------------------------------------------------0-------|
E|-------------------------------|---------------------------------------------------------|

E|----------------------------------------|--------------------------------|----------------------------------------|
B|----------------------------------------|--------------------------------|----------------------------------------|
G|-2----%----%----2---0---2----%----%-----|-------7----------------2---0---|-2----%----%----2---0---2----%----%-----|
D|-2----%----%----2---0---2----%----%-----|-5-----7-----3-----5----2---0---|-2----%----%----2---0---2----%----%-----|
A|-0--------------0-------0---------------|-5-----5-----3-----5----0-------|-0--------------0-------0---------------|
E|----------------------------------------|-3-----------1-----3------------|----------------------------------------|

E|--------------------------------|-----------------------------------------------------------|
B|--------------------------------|-----------------------------------------------------------|
G|-------7----------------2---0---|-2--------------------2---0---2--------------------2---0---|
D|-5-----7-----3-----5----2---0---|-2----2---2---2---2---2---0---2----2---2---2---2---2---0---|
A|-5-----5-----3-----5----0-------|-0----0---0---0---0---0-------0----0---0---0---0---0-------|
E|-3-----------1-----3------------|-----------------------------------------------------------|

E|-----------------------------------------------------|-----------------------------------------------------------|
B|-----------------------------------------------------|-----------------------------------------------------------|
G|--------------7----7---7---------------------2---0---|-2--------------------2---0---2--------------------2---0---|
D|-5----5---5---7----7---7---3----3---3---5----2---0---|-2----2---2---2---2---2---0---2----2---2---2---2---2---0---|
A|-5----5---5---5----5---5---3----3---3---5----0-------|-0----0---0---0---0---0-------0----0---0---0---0---0-------|
E|-3----3---3----------------1----1---1---3------------|-----------------------------------------------------------|

E|-----------------------------------------------------|-----------------------------------------------------------|
B|-----------------------------------------------------|-----------------------------------------------------------|
G|--------------7----7---7---------------------2---0---|-2--------------------2---0---2--------------------2---0---|
D|-5----5---5---7----7---7---3----3---3---5----2---0---|-2----2---2---2---2---2---0---2----2---2---2---2---2---0---|
A|-5----5---5---5----5---5---3----3---3---5----0-------|-0----0---0---0---0---0-------0----0---0---0---0---0-------|
E|-3----3---3----------------1----1---1---3------------|-----------------------------------------------------------|

E|-----------------------------------------------------|-----------------------------------------------------------|
B|-----------------------------------------------------|-----------------------------------------------------------|
G|--------------7----7---7---------------------2---0---|-2--------------------2---0---2--------------------2---0---|
D|-5----5---5---7----7---7---3----3---3---5----2---0---|-2----2---2---2---2---2---0---2----2---2---2---2---2---0---|
A|-5----5---5---5----5---5---3----3---3---5----0-------|-0----0---0---0---0---0-------0----0---0---0---0---0-------|
E|-3----3---3----------------1----1---1---3------------|-----------------------------------------------------------|

E|-------------------------|---------|---------|---------|---------|---------|---------|
B|-------------------------|---------|---------|---------|---------|---------|---------|
G|-------7-----------------|-%-------|-%-------|-%-------|-%-------|-%-------|-%-------|
D|-5-----7-----3-----5-----|-%-------|-%-------|-%-------|-%-------|-%-------|-%-------|
A|-5-----5-----3-----5-----|---------|---------|---------|---------|---------|---------|
E|-3-----------1-----3-----|---------|---------|---------|---------|---------|---------|

E|---------|---------|---------|---------|---------|---------|-----------------------------------------|
B|---------|---------|---------|---------|---------|---------|-----------------------------------------|
G|-%-------|-%-------|-%-------|-%-------|-%-------|-%-------|-2----2----2---------2----2----2---------|
D|-%-------|-%-------|-%-------|-%-------|-%-------|-%-------|-2----2----2---------2----2----2---------|
A|---------|---------|---------|---------|---------|---------|-0----0----0---------0----0----0---3-----|
E|---------|---------|---------|---------|---------|---------|---------------3-------------------------|

E|--------------------|-----------------------------------------|--------------------|
B|--------------------|-----------------------------------------|--------------------|
G|-7------------------|-2----2----2---------2----2----2---------|-7------------------|
D|-7------3-----5-----|-2----2----2---------2----2----2---------|-7------3-----5-----|
A|-5------3-----5-----|-0----0----0---------0----0----0---3-----|-5------3-----5-----|
E|--------1-----3-----|---------------3-------------------------|--------1-----3-----|

E|---------|----------------------|----------------------------------------|--------------------------------|
B|---------|----------------------|----------------------------------------|--------------------------------|
G|---------|--------------2---0---|-2----%----%----2---0---2----%----%-----|-------7----------------2---0---|
D|-7-------|-7-------7----2---0---|-2----%----%----2---0---2----%----%-----|-5-----7-----3-----5----2---0---|
A|-7-------|-7-------7----0-------|-0--------------0-------0---------------|-5-----5-----3-----5----0-------|
E|-5-------|-5-------5------------|----------------------------------------|-3-----------1-----3------------|

E|----------------------------------------|--------------------------------|-----------------------------------------------------------|
B|----------------------------------------|--------------------------------|-----------------------------------------------------------|
G|-2----%----%----2---0---2----%----%-----|-------7----------------2---0---|-2--------------------2---0---2--------------------2---0---|
D|-2----%----%----2---0---2----%----%-----|-5-----7-----3-----5----2---0---|-2----2---2---2---2---2---0---2----2---2---2---2---2---0---|
A|-0--------------0-------0---------------|-5-----5-----3-----5----0-------|-0----0---0---0---0---0-------0----0---0---0---0---0-------|
E|----------------------------------------|-3-----------1-----3------------|-----------------------------------------------------------|

E|-----------------------------------------------------|-----------------------------------------------------------|
B|-----------------------------------------------------|-----------------------------------------------------------|
G|--------------7----7---7---------------------2---0---|-2--------------------2---0---2--------------------2---0---|
D|-5----5---5---7----7---7---3----3---3---5----2---0---|-2----2---2---2---2---2---0---2----2---2---2---2---2---0---|
A|-5----5---5---5----5---5---3----3---3---5----0-------|-0----0---0---0---0---0-------0----0---0---0---0---0-------|
E|-3----3---3----------------1----1---1---3------------|-----------------------------------------------------------|

E|-----------------------------------------------------|------------------------|--------7-----7----8----7----|
B|-----------------------------------------------------|------------------------|-----------------------------|
G|--------------7----7---7---------------------2---0---|-7-------7----7----5----|-7---------------------------|
D|-5----5---5---7----7---7---3----3---3---5----2---0---|------------------------|-----------------------------|
A|-5----5---5---5----5---5---3----3---3---5----0-------|------------------------|-----------------------------|
E|-3----3---3----------------1----1---1---3------------|------------------------|-----------------------------|

E|-----------------------------------------------|---------12----|-15-----15---13---12---------|
B|-8----10---8-----------------------------------|---------------|-----------------------15----|
G|----------------7----9----7----7-----7----5----|---------------|-----------------------------|
D|-----------------------------------------------|-7-------------|-----------------------------|
A|-----------------------------------------------|---------------|-----------------------------|
E|-----------------------------------------------|---------------|-----------------------------|

E|-----------------------15--15--13--12--|-15--13--12--15--13--12--15---15--15--13--12--------|
B|-15----13------------------------------|----------------------------------------------13----|
G|------------14---14--------------------|----------------------------------------------------|
D|---------------------------------------|----------------------------------------------------|
A|---------------------------------------|----------------------------------------------------|
E|---------------------------------------|----------------------------------------------------|

E|-------------------|-------20---20---20----------|-20---------------------|-20--------------20---20---20---17---|
B|--------------17---|-20--------------------20----|-------20-----20---17---|-------20---17-----------------------|
G|-14------19--------|-----------------------------|------------------------|-------------------------------------|
D|-------------------|-----------------------------|------------------------|-------------------------------------|
A|-------------------|-----------------------------|------------------------|-------------------------------------|
E|-------------------|-----------------------------|------------------------|-------------------------------------|

E|--------20---20--19--17--20--19--17--20--19--|-17--20--19--17--------------------------------------------------|
B|-20------------------------------------------|-----------------20--17--20--19--17--20--19--17--20--19--17--20--|
G|---------------------------------------------|-----------------------------------------------------------------|
D|---------------------------------------------|-----------------------------------------------------------------|
A|---------------------------------------------|-----------------------------------------------------------------|
E|---------------------------------------------|-----------------------------------------------------------------|

E|---------------------------------------------|-------------------------------------|
B|-19--17--20-----20--18--17--20--18--17-------|-------------------------------------|
G|----------------------------------------19---|-19---17---19---17---19----19---17---|
D|---------------------------------------------|-7----17---19---17---19----19---17---|
A|---------------------------------------------|-------------------------------------|
E|---------------------------------------------|-------------------------------------|

E|---------|-------------------------------------|-------------------------------------|
B|---------|-------------------------------------|-------------------------------------|
G|---------|-2-------------------------2----0----|-2-------------------------2----0----|
D|-19------|-2-----2----2----2----2----2----0----|-2-----2----2----2----2----2----0----|
A|---------|-0-----0----0----0----0----0---------|-0-----0----0----0----0----0---------|
E|---------|-------------------------------------|-------------------------------------|

E|-------------------------------------|---------|-------------------------------------|
B|-------------------------------------|---------|-------------------------------------|
G|-------------------------------------|---------|-2-------------------------2----0----|
D|-7--------------5--------------4-----|-2-------|-2-----2----2----2----2----2----0----|
A|-5----0----0----3----0----0----2-----|-0-------|-0-----0----0----0----0----0---------|
E|-------------------------------------|---------|-------------------------------------|

E|-------------------------------------|-------------------------------------|---------|
B|-------------------------------------|-------------------------------------|---------|
G|-2-------------------------2----0----|-------------------------------------|---------|
D|-2-----2----2----2----2----2----0----|-7--------------5--------------4-----|-2-------|
A|-0-----0----0----0----0----0---------|-5----0----0----3----0----0----2-----|-0-------|
E|-------------------------------------|-------------------------------------|---------|

E|-------------------------------------|-------------------------------------|-------------------------------------|
B|-------------------------------------|-------------------------------------|-------------------------------------|
G|-2-------------------------2----0----|-2-------------------------2----0----|-------------------------------------|
D|-2-----2----2----2----2----2----0----|-2-----2----2----2----2----2----0----|-7--------------5--------------4-----|
A|-0-----0----0----0----0----0---------|-0-----0----0----0----0----0---------|-5----0----0----3----0----0----2-----|
E|-------------------------------------|-------------------------------------|-------------------------------------|

E|---------|-------------------------------------|-------------------------------------|
B|---------|-------------------------------------|-------------------------------------|
G|---------|-2-------------------------2----0----|-2-------------------------2----0----|
D|-2-------|-2-----2----2----2----2----2----0----|-2-----2----2----2----2----2----0----|
A|-0-------|-0-----0----0----0----0----0---------|-0-----0----0----0----0----0---------|
E|---------|-------------------------------------|-------------------------------------|

E|-------------------------------------|-------------------------------------|-------------------------------------|
B|-------------------------------------|-------------------------------------|-------------------------------------|
G|-------------------------------------|-------------------------------------|-------------------------------------|
D|-7--------------5--------------4-----|-----------7----5----5---------------|-----------2----0----0---------------|
A|-5----0----0----3----0----0----2-----|-5----7-------------------7----5-----|-3----5-------------------3----0-----|
E|-------------------------------------|-------------------------------------|-------------------------------------|

E|-------------------------------------|----------------------------|-------------------------------------|
B|-------------------------------------|----------------------------|-------------------------------------|
G|-------------------------------------|----------------------------|-------------------------------------|
D|-------------------------------------|----------------2----2------|-----------7----5----5---------------|
A|-----------3----2----2---------------|-----------3----0----0------|-5----7-------------------7----5-----|
E|-1----3-------------------3----1-----|-1----3---------------------|-------------------------------------|

E|-------------------------------------|-------------------------------------|----------------------------|
B|-------------------------------------|-------------------------------------|----------------------------|
G|-------------------------------------|-------------------------------------|----------------------------|
D|-----------2----0----0---------------|-------------------------------------|----------------2----2------|
A|-3----5-------------------3----0-----|-----------3----2----2---------------|-----------3----0----0------|
E|-------------------------------------|-1----3-------------------3----1-----|-1----3---------------------|

E|-------------------------------------|-------------------------------------|-------------------------------------|
B|-------------------------------------|-------------------------------------|-------------------------------------|
G|-2----4----5----4----4----2----------|-------------------------------------|-------------------------------------|
D|-------------------------------2-----|-2----3----5----3----3----2----------|-----------2-------------------------|
A|-------------------------------------|-------------------------------3-----|-3----5---------5----5----3----0-----|
E|-------------------------------------|-------------------------------------|-------------------------------------|

E|----------------------------|-------------------------------------|-------------------------------------|
B|----------------------------|-------------------------------------|-------------------------------------|
G|----------------------------|-2----4----5----4----4----2----------|-------------------------------------|
D|----------------------------|-------------------------------2-----|-2----3----5----3----3----2----------|
A|-2----3----5----3----3------|-------------------------------------|-------------------------------3-----|
E|----------------------------|-------------------------------------|-------------------------------------|

E|-------------------------------------|----------------------------------------|-----------------------------------------------------------|
B|-------------------------------------|----------------------------------------|-----------------------------------------------------------|
G|-------------------------------------|--------------------------------2---0---|-2--------------------2---0---2--------------------2---0---|
D|-----------2-------------------------|--------------------------------2---0---|-2----2---2---2---2---2---0---2----2---2---2---2---2---0---|
A|-3----5---------5----5----3----0-----|-2----3----5----3----3-----3----0-------|-0----0---0---0---0---0-------0----0---0---0---0---0-------|
E|-------------------------------------|----------------------------------------|-----------------------------------------------------------|

E|-----------------------------------------------------|-------------------------|-----------------1----1----------|
B|-----------------------------------------------------|-------------------------|-----------------1----1----------|
G|--------------7----7---7---------------------2---0---|-------7-----------------|-2----2----%-----2----2----%-----|
D|-5----5---5---7----7---7---3----3---3---5----2---0---|-5-----7-----3-----5-----|-2----2----%-----3----3----%-----|
A|-5----5---5---5----5---5---3----3---3---5----0-------|-5-----5-----3-----5-----|-0----0----------3----3----------|
E|-3----3---3----------------1----1---1---3------------|-3-----------1-----3-----|-----------------1----1----------|

E|-3----3------------------------------|-----------------1----1----------|-3----3------------------------------|
B|-3----3------------------------------|-----------------1----1----------|-3----3------------------------------|
G|-4----4----%-----2----2----2---------|-2----2----%-----2----2----%-----|-4----4----%-----2----2----2---------|
D|-5----5----%-----2----2----2---------|-2----2----%-----3----3----%-----|-5----5----%-----2----2----2---------|
A|-5----5----------0----0----0---------|-0----0----------3----3----------|-5----5----------0----0----0---------|
E|-3----3------------------------3-----|-----------------1----1----------|-3----3------------------------3-----|

E|-----------------1----1----------|-3----3----------|---------|---------|---------|
B|-----------------1----1----------|-3----3----------|---------|---------|---------|
G|-2----2----%-----2----2----%-----|-4----4----%-----|-%-------|-%-------|-%-------|
D|-2----2----%-----3----3----%-----|-5----5----%-----|-%-------|-%-------|-%-------|
A|-0----0----------3----3----------|-5----5----------|---------|---------|---------|
E|-----------------1----1----------|-3----3----------|---------|---------|---------|

E|---------|---------|
B|---------|---------|
G|-%-------|-%-------|
D|-%-------|-%-------|
A|---------|---------|
E|---------|---------|
Iron Maiden - Revelations
Iron Maiden - Revelations.gp3