Iron Maiden - Rime of the Ancient Mariner

Iron Maiden



Title: Rime of the Ancient Mariner
Album: 
Artist: 
Author: Iron Maiden

Track 1: Dave (Guitar 1)
E|------------------------------|-----------------------------------------------------|
B|------------------------------|-----------------------------------------------------|
G|-%------%---------------------|-9------------9------------9------------9------------|
D|-%------%-----5---4-----------|-9------------9------------9------------9------------|
A|----------------------7---5---|-7------------7------------7------------7------------|
E|------------------------------|------0---0--------0---0--------0---0--------0---0---|

E|-------------------------------------------|-----------------------------------------------------|
B|-------------------------------------------|-----------------------------------------------------|
G|-9------------9------------5-----7----9----|-9------------9------------9------------9------------|
D|-9------------9------------5-----7----9----|-9------------9------------9------------9------------|
A|-7------------7------------3-----5----7----|-7------------7------------7------------7------------|
E|------0---0--------0---0-------------------|------0---0--------0---0--------0---0--------0---0---|

E|---------------------------------------|-----------------------------------------------------------------|
B|---------------------------------------|-----------------------------------------------------------------|
G|-9------------9------------5-----7-----|-----------------------------------------------------------------|
D|-9------------9------------5-----7-----|-4---5-------4---5---4-------4---5---4-------4---5---4-------4---|
A|-7------------7------------3-----5-----|---------7---------------7---------------7---------------7-------|
E|------0---0--------0---0---------------|-----------------------------------------------------------------|

E|-----------------------------------------------------------|-----------------------------------------------------|
B|-----------------------------------------------------------|-----------------------------------------------------|
G|-----------------------------------------------------------|--------------9------------9------------9------------|
D|-5---4-------4---5---4-------4---5----5------------4-------|--------------9------------9------------9------------|
A|---------7---------------7-----------------5---7-------7---|-7------------7------------7------------7------------|
E|-----------------------------------------------------------|------0---0--------0---0--------0---0--------0---0---|

E|--------------------------------------------------|-----------------------------------------------------|
B|--------------------------------------------------|-----------------------------------------------------|
G|-9------------9------------9------------9----7----|-9------------9------------9------------9------------|
D|-9------------9------------9------------9----7----|-9------------9------------9------------9------------|
A|-7------------7------------7------------7----5----|-7------------7------------7------------7------------|
E|------0---0--------0---0--------0---0-------------|------0---0--------0---0--------0---0--------0---0---|

E|--------------------------------------------------------|-----------------------------------------------------|
B|--------------------------------------------------------|-----------------------------------------------------|
G|-9------------9------------9----------------------------|-9------------9------------9------------9------------|
D|-9------------9------------9--------------------4-------|-9------------9------------9------------9------------|
A|-7------------7------------7------------5---7-------5---|-7------------7------------7------------7------------|
E|------0---0--------0---0--------0---0-------------------|------0---0--------0---0--------0---0--------0---0---|

E|-------------------------|-----------------------------------------------------|--------------------------------------------------|
B|-------------------------|-----------------------------------------------------|--------------------------------------------------|
G|-5-----------------------|-9------------9------------9------------9------------|-9------------9------------9------------9----9----|
D|-5---------------4-------|-9------------9------------9------------9------------|-9------------9------------9------------9----9----|
A|-3-------5---7-------5---|-7------------7------------7------------7------------|-7------------7------------7------------7----7----|
E|-------------------------|------0---0--------0---0--------0---0--------0---0---|------0---0--------0---0--------0---0-------------|

E|---------|-------------------------|-----------------------------------------------------|
B|---------|-------------------------|-----------------------------------------------------|
G|-5-------|-7-----------------------|-9------------9------------9------------9------------|
D|-5-------|-7---------------4-------|-9------------9------------9------------9------------|
A|-3-------|-5-------5---7-------5---|-7------------7------------7------------7------------|
E|---------|-------------------------|------0---0--------0---0--------0---0--------0---0---|

E|--------------------------------------------------|----------------------------------------------------|
B|--------------------------------------------------|----------------------------------------------------|
G|-9------------9------------9------------9----7----|----------------------------------------------7-----|
D|-9------------9------------9------------9----7----|-9---7-------7---9----9---9---9---9-------7---------|
A|-7------------7------------7------------7----5----|---------10---------------------------10------------|
E|------0---0--------0---0--------0---0-------------|----------------------------------------------------|

E|----------------------------------------------------|----------------------------------------------------|
B|----------------------------------------------------|----------------------------------------------------|
G|----------------------------------------------------|----------------------------------------------7-----|
D|-9---7-------7---9----9---9---9---7-------7---------|-9---7-------7---9----9---9---9---9-------7---------|
A|---------10---------------------------10------9-----|---------10---------------------------10------------|
E|----------------------------------------------------|----------------------------------------------------|

E|--------------------------------------------------------|-----------------------------------------------------|
B|--------------------------------------------------------|-----------------------------------------------------|
G|--------------------------------------------------------|--------------9------------9------------9------------|
D|-9---7-------7---9----9---9---9----9------------4-------|--------------9------------9------------9------------|
A|---------10-----------------------------5---7-------7---|-7------------7------------7------------7------------|
E|--------------------------------------------------------|------0---0--------0---0--------0---0--------0---0---|

E|--------------------------------------------------|----------------------------------------------------|
B|--------------------------------------------------|----------------------------------------------------|
G|-9------------9------------9------------9----7----|----------------------------------------------------|
D|-9------------9------------9------------9----7----|-9---7-------7---9----9---9---9---9-------7---9-----|
A|-7------------7------------7------------7----5----|---------10---------------------------10------------|
E|------0---0--------0---0--------0---0-------------|----------------------------------------------------|

E|----------------------------------------------------|----------------------------------------------------|
B|----------------------------------------------------|----------------------------------------------------|
G|----------------------------------------------------|----------------------------------------------------|
D|-12--10--9---10--12---12--12--12--10--9---10--12----|-9---7-------7---9----9---9---9---9-------7---9-----|
A|----------------------------------------------------|---------10---------------------------10------------|
E|----------------------------------------------------|----------------------------------------------------|

E|--------------------------------------------------------|-----------------------------------------------------|
B|--------------------------------------------------------|-----------------------------------------------------|
G|--------------------------------------------------------|--------------9------------9------------9------------|
D|-9---7-------7---9----9---9---9----9------------4-------|--------------9------------9------------9------------|
A|---------10-----------------------------5---7-------7---|-7------------7------------7------------7------------|
E|--------------------------------------------------------|------0---0--------0---0--------0---0--------0---0---|

E|--------------------------------------------------|-----------------------------------------------------|
B|--------------------------------------------------|-----------------------------------------------------|
G|-9------------9------------9------------9----7----|-9------------9------------9------------9------------|
D|-9------------9------------9------------9----7----|-9------------9------------9------------9------------|
A|-7------------7------------7------------7----5----|-7------------7------------7------------7------------|
E|------0---0--------0---0--------0---0-------------|------0---0--------0---0--------0---0--------0---0---|

E|--------------------------------------------------------|-----------------------------------------------------|
B|--------------------------------------------------------|-----------------------------------------------------|
G|-9------------9------------9----------------------------|-9------------9------------9------------9------------|
D|-9------------9------------9--------------------4-------|-9------------9------------9------------9------------|
A|-7------------7------------7------------5---7-------5---|-7------------7------------7------------7------------|
E|------0---0--------0---0--------0---0-------------------|------0---0--------0---0--------0---0--------0---0---|

E|--------------------------------------------------------|-----------------------------------------------------|
B|--------------------------------------------------------|-----------------------------------------------------|
G|-9------------9------------9----------------------------|-9------------9------------9------------9------------|
D|-9------------9------------9--------------------4-------|-9------------9------------9------------9------------|
A|-7------------7------------7------------5---7-------5---|-7------------7------------7------------7------------|
E|------0---0--------0---0--------0---0-------------------|------0---0--------0---0--------0---0--------0---0---|

E|--------------------------------------------------------|-----------------------------------------------------|
B|--------------------------------------------------------|-----------------------------------------------------|
G|-9------------9------------9----------------------------|-9------------9------------9------------9------------|
D|-9------------9------------9--------------------4-------|-9------------9------------9------------9------------|
A|-7------------7------------7------------5---7-------5---|-7------------7------------7------------7------------|
E|------0---0--------0---0--------0---0-------------------|------0---0--------0---0--------0---0--------0---0---|

E|-----------------------------------------------------|---------|---------|-----------------------------------------------------|
B|-----------------------------------------------------|---------|---------|-----------------------------------------------------|
G|-9------------9------------9------------9------------|-5-------|-7-------|-4----4---4---7---5---4-------4----4---4--------4----|
D|-9------------9------------9------------9------------|-5-------|-7-------|--------------------------7----------------7---------|
A|-7------------7------------7------------7------------|-3-------|-5-------|-----------------------------------------------------|
E|------0---0--------0---0--------0---0--------0---0---|---------|---------|-----------------------------------------------------|

E|----------------------------------------------|---------|---------|-----------------------------------------------------|
B|----------------------------------------------|---------|---------|-----------------------------------------------------|
G|-4----4---4---7---5---4-------4----------4----|-5-------|-7-------|-4----4---4---7---5---4-------4----4---4--------4----|
D|--------------------------7---------7---------|-5-------|-7-------|--------------------------7----------------7---------|
A|----------------------------------------------|-3-------|-5-------|-----------------------------------------------------|
E|----------------------------------------------|---------|---------|-----------------------------------------------------|

E|----------------------------------------------|-----------------------------------------------------|
B|----------------------------------------------|-----------------------------------------------------|
G|-4----4---4---7---5---4-------4----------4----|-9------------9------------9------------9------------|
D|--------------------------7---------7---------|-9------------9------------9------------9------------|
A|----------------------------------------------|-7------------7------------7------------7------------|
E|----------------------------------------------|------0---0--------0---0--------0---0--------0---0---|

E|--------------------------------------------------------|-----------------------------------------------------|
B|--------------------------------------------------------|-----------------------------------------------------|
G|-9------------9------------9----------------------------|-9------------9------------9------------9------------|
D|-9------------9------------9--------------------4-------|-9------------9------------9------------9------------|
A|-7------------7------------7------------5---7-------5---|-7------------7------------7------------7------------|
E|------0---0--------0---0--------0---0-------------------|------0---0--------0---0--------0---0--------0---0---|

E|-----------------------------------------------------|-----------------------------------------------------|
B|-----------------------------------------------------|-----------------------------------------------------|
G|-9------------9------------9------------9------------|-7------------7------------7------------7------------|
D|-9------------9------------9------------9------------|-7------------7------------7------------7------------|
A|-7------------7------------7------------7------------|-5----5---5---5----5---5---5----5---5---5----5---5---|
E|------0---0--------0---0--------0---0--------0---0---|-----------------------------------------------------|

E|--------------------------------------------------------|-----------------------------------------------------|
B|--------------------------------------------------------|-----------------------------------------------------|
G|-7------------7------------7----------------------------|-9------------9------------9------------9------------|
D|-7------------7------------7--------------------4-------|-9------------9------------9------------9------------|
A|-5----5---5---5----5---5---5----5---5---5---7-------5---|-7------------7------------7------------7------------|
E|--------------------------------------------------------|------0---0--------0---0--------0---0--------0---0---|

E|-----------------------------------------------------|-----------------------------------------------------------------|
B|-----------------------------------------------------|-----------------------------------------------------------------|
G|-9------------9------------9------------9------------|-----------------------------------------------------------------|
D|-9------------9------------9------------9------------|-4---5-------4---5---4-------4---5---4-------4---5---4-------4---|
A|-7------------7------------7------------7------------|---------7---------------7---------------7---------------7-------|
E|------0---0--------0---0--------0---0--------0---0---|-----------------------------------------------------------------|

E|-----------------------------------------------------------|-----------------------------------------------------|
B|-----------------------------------------------------------|-----------------------------------------------------|
G|-----------------------------------------------------------|--------------9------------9------------9------------|
D|-5---4-------4---5---4-------4---5----5------------4-------|--------------9------------9------------9------------|
A|---------7---------------7-----------------5---7-------7---|-7------------7------------7------------7------------|
E|-----------------------------------------------------------|------0---0--------0---0--------0---0--------0---0---|

E|-----------------------------------------------------|-----------------------------------------------------------------|
B|-----------------------------------------------------|-----------------------------------------------------------------|
G|-9------------9------------9------------9------------|-----------------------------------------------------------------|
D|-9------------9------------9------------9------------|-4---5-------4---5---4-------4---5---4-------4---5---4-------4---|
A|-7------------7------------7------------7------------|---------7---------------7---------------7---------------7-------|
E|------0---0--------0---0--------0---0--------0---0---|-----------------------------------------------------------------|

E|-----------------------------------------------------------|--------------------|
B|-----------------------------------------------------------|--------------------|
G|-----------------------------------------------------------|-9-----%------%-----|
D|-5---4-------4---5---4-------4---5----5------------4-------|-9-----%------%-----|
A|---------7---------------7-----------------5---7-------7---|-7------------------|
E|-----------------------------------------------------------|--------------------|

E|--------------------|-------------------------------------------------------------|
B|--------------------|-------------------------------------------------------------|
G|-9-----%------%-----|-------------------------------------------------------------|
D|-9-----%------%-----|-------------------------------------------------------------|
A|-7------------------|-7----7----7----9----9----9----10---10---10---12---10---9----|
E|--------------------|-------------------------------------------------------------|

E|-------------------------------------------------------------|--------------------|
B|-------------------------------------------------------------|--------------------|
G|-------------------------------------------------------------|-------%------%-----|
D|-------------------------------------------------------------|-------%------%-----|
A|-7----7----7----9----9----9----10---10---10---12---10---9----|-7------------------|
E|-------------------------------------------------------------|-0------------------|

E|--------------------|-------------------------------------------------------------|
B|--------------------|-------------------------------------------------------------|
G|-------%------%-----|-------------------------------------------------------------|
D|-------%------%-----|-------------------------------------------------------------|
A|-7------------------|-7----7----7----9----9----9----10---10---10---12---10---9----|
E|-0------------------|-------------------------------------------------------------|

E|-------------------------------------------------------------|-------------------------------------------------------------|
B|-------------------------------------------------------------|-------------------------------------------------------------|
G|-------------------------------------------------------------|-------------------------------------------------------------|
D|-------------------------------------------------------------|-------------------------------------------------------------|
A|-7----7----7----9----9----9----10---10---10---12---10---9----|-3----3----3----3----3----3----3----3----3----3----3----3----|
E|-------------------------------------------------------------|-------------------------------------------------------------|

E|-------------------------------------------------------------|-------------------------------------------------------------|
B|-------------------------------------------------------------|-------------------------------------------------------------|
G|-------------------------------------------------------------|-------------------------------------------------------------|
D|-------------------------------------------------------------|-------------------------------------------------------------|
A|-3----3----3----3----3----3----3----3----3----3----3----3----|-3----3----3----3----3----3----3----3----3----3----3----3----|
E|-------------------------------------------------------------|-------------------------------------------------------------|

E|-------------------------------------------------------------|-------------------------------------------------------------|
B|-------------------------------------------------------------|-------------------------------------------------------------|
G|-------------------------------------------------------------|-------------------------------------------------------------|
D|-------------------------------------------------------------|-------------------------------------------------------------|
A|-3----3----3----3----3----3----3----3----3----3----3----3----|-0----0----0----0----0----0----0----0----0----0----0----0----|
E|-------------------------------------------------------------|-------------------------------------------------------------|

E|-------------------------------------------------------------|-------------------------------------------------------------|
B|-------------------------------------------------------------|-------------------------------------------------------------|
G|-------------------------------------------------------------|-------------------------------------------------------------|
D|-------------------------------------------------------------|-------------------------------------------------------------|
A|-0----0----0----0----0----0----0----0----0----0----0----0----|-0----0----0----0----0----0----0----0----0----0----0----0----|
E|-------------------------------------------------------------|-------------------------------------------------------------|

E|-------------------------------------------------------------|-------------------------------------------------------------|
B|-------------------------------------------------------------|-------------------------------------------------------------|
G|-------------------------------------------------------------|-------------------------------------------------------------|
D|-------------------------------------------------------------|-------------------------------------------------------------|
A|-0----0----0----0----0----0----0----0----0----0----0----0----|-3----3----3----3----3----3----3----3----3----3----3----3----|
E|-------------------------------------------------------------|-------------------------------------------------------------|

E|-------------------------------------------------------------|-------------------------------------------------------------|
B|-------------------------------------------------------------|-------------------------------------------------------------|
G|-------------------------------------------------------------|-------------------------------------------------------------|
D|-------------------------------------------------------------|-------------------------------------------------------------|
A|-3----3----3----3----3----3----3----3----3----3----3----3----|-3----3----3----3----3----3----3----3----3----3----3----3----|
E|-------------------------------------------------------------|-------------------------------------------------------------|

E|-------------------------------------------------------------|-------------------------------------------------------------|
B|-------------------------------------------------------------|-------------------------------------------------------------|
G|-------------------------------------------------------------|-------------------------------------------------------------|
D|-------------------------------------------------------------|-------------------------------------------------------------|
A|-3----3----3----3----3----3----3----3----3----3----3----3----|-0----0----0----0----0----0----0----0----0----0----0----0----|
E|-------------------------------------------------------------|-------------------------------------------------------------|

E|-------------------------------------------------------------|-------------------------------------------------------------|
B|-------------------------------------------------------------|-------------------------------------------------------------|
G|-------------------------------------------------------------|-------------------------------------------------------------|
D|-------------------------------------------------------------|-------------------------------------------------------------|
A|-0----0----0----0----0----0----0----0----0----0----0----0----|-0----0----0----0----0----0----0----0----0----0----0----0----|
E|-------------------------------------------------------------|-------------------------------------------------------------|

E|-------------------------------------------------------------|---------|---------|
B|-------------------------------------------------------------|---------|---------|
G|-------------------------------------------------------------|---------|---------|
D|-------------------------------------------------------------|-4-------|-4-------|
A|-0----0----0----0----0----0----0----0----0----0----0----0----|-4-------|-4-------|
E|-------------------------------------------------------------|-2-------|-2-------|

E|---------|---------|---------|---------|---------|---------|-------------------------------------------------------------|
B|---------|---------|---------|---------|---------|---------|-------------------------------------------------------------|
G|---------|---------|---------|---------|---------|---------|-------------------------------------------------------------|
D|-7-------|-7-------|-2-------|-2-------|-3-------|-5-------|-------------------------------------------------------------|
A|-7-------|-7-------|-2-------|-2-------|-3-------|-5-------|-10---7----7----7----7----7----10---7----7----7----7----7----|
E|-5-------|-5-------|-0-------|-0-------|-1-------|-3-------|-------------------------------------------------------------|

E|-------------------------------------------------------------|-------------------------------------------------------------|
B|-------------------------------------------------------------|-------------------------------------------------------------|
G|-------------------------------------------------------------|-------------------------------------------------------------|
D|-------------------------------7----7----7----7--------------|-------------------------------------------------------------|
A|-10---7----7----7----7----7------------------------10---9----|-10---7----7----7----7----7----10---7----7----7----7----7----|
E|-------------------------------------------------------------|-------------------------------------------------------------|

E|-------------------------------------------------------------|-------------------------------------------------------------|
B|-------------------------------------------------------------|-------------------------------------------------------------|
G|-------------------------------------------------------------|-------------------------------------------------------------|
D|-------------------------------------------------------------|-------------------------------------------------------------|
A|-------------------------------6----6----6----6----6----6----|-10---7----7----7----7----7----10---7----7----7----7----7----|
E|-8----8----8----8----8----8----------------------------------|-------------------------------------------------------------|

E|-------------------------------------------------------------|-------------------------------------------------------------|
B|-------------------------------------------------------------|-------------------------------------------------------------|
G|-------------------------------------------------------------|-------------------------------------------------------------|
D|-------------------------------7----7----7----7--------------|-------------------------------------------------------------|
A|-10---7----7----7----7----7------------------------10---9----|-10---7----7----7----7----7----10---7----7----7----7----7----|
E|-------------------------------------------------------------|-------------------------------------------------------------|

E|-8----------------------------------------|---------|---------|---------|---------|
B|------------------------------------------|-5-------|---------|---------|---------|
G|------------------------------------------|-6-------|-%-------|-%-------|-%-------|
D|-10----9----10---9--------------11--------|-6-------|-%-------|-%-------|-%-------|
A|----------------------10---12--------12---|-4-------|---------|---------|---------|
E|------------------------------------------|---------|---------|---------|---------|

E|---------|--------------------------|---------|--------------------------|---------|
B|---------|--------------------------|---------|--------------------------|---------|
G|-%-------|-------10-10-10---10------|-%-------|-------7--7--7----7-------|-%-------|
D|-%-------|----11--------------------|-%-------|----8---------------------|-%-------|
A|---------|-12-----------------------|---------|-9------------------------|---------|
E|---------|--------------------------|---------|--------------------------|---------|

E|--------------------------|---------|--------------------------|---------|--------------------------|
B|--------------------------|---------|--------------------------|---------|--------------------------|
G|-------10-10-10---10------|-%-------|-------7--7--7----7-------|-%-------|-------10-10-10---10------|
D|----11--------------------|-%-------|----8---------------------|-%-------|----11--------------------|
A|-12-----------------------|---------|-9------------------------|---------|-12-----------------------|
E|--------------------------|---------|--------------------------|---------|--------------------------|

E|---------|--------------------------|---------|--------------------------|---------|
B|---------|--------------------------|---------|--------------------------|---------|
G|-%-------|-------7--7--7----7-------|-%-------|-------10-10-10---10------|-%-------|
D|-%-------|----8---------------------|-%-------|----11--------------------|-%-------|
A|---------|-9------------------------|---------|-12-----------------------|---------|
E|---------|--------------------------|---------|--------------------------|---------|

E|--------------------------|---------|--------------------------|---------|--------------------------|
B|--------------------------|---------|--------------------------|---------|--------------------------|
G|-------7--7--7----7-------|-%-------|-10-----------------------|-%-------|-8------------------------|
D|----8---------------------|-%-------|----12--------------------|-%-------|----10--------------------|
A|-9------------------------|---------|-------12-12-12---12------|---------|-------10-10-10---10------|
E|--------------------------|---------|--------------------------|---------|--------------------------|

E|---------|--------------------------|---------|--------------------------|---------|
B|---------|--------------------------|---------|--------------------------|---------|
G|-%-------|-10-----------------------|-%-------|-7------------------------|-%-------|
D|-%-------|----12--------------------|-%-------|----9---------------------|-%-------|
A|---------|-------12-12-12---12------|---------|-------9--9--9----9-------|---------|
E|---------|--------------------------|---------|--------------------------|---------|

E|--------------------------|---------|--------------------------|---------|--------------------------|
B|--------------------------|---------|--------------------------|---------|--------------------------|
G|-10-----------------------|-%-------|-8------------------------|---------|-10-----------------------|
D|----12--------------------|-%-------|----10--------------------|---------|----12--------------------|
A|-------12-12-12---12------|---------|-------10-10-10---10------|-10------|-------12-12-12---12------|
E|--------------------------|---------|--------------------------|---------|--------------------------|

E|---------|--------------------------|---------|---------|---------|---------|---------|
B|---------|--------------------------|---------|---------|---------|---------|---------|
G|---------|-7------------------------|-%-------|-%-------|-%-------|-%-------|-%-------|
D|---------|----9---------------------|-%-------|-%-------|-%-------|-%-------|-%-------|
A|-12------|-------9--9--9----9-------|---------|---------|---------|---------|---------|
E|---------|--------------------------|---------|---------|---------|---------|---------|

E|---------|---------|---------|---------|-----------------------------------------|
B|---------|---------|---------|---------|-----------------------------------------|
G|-%-------|-%-------|-%-------|-%-------|-----------------------------------------|
D|-%-------|-%-------|-%-------|-%-------|-7----7----7----7----7----7----7----7----|
A|---------|---------|---------|---------|-5----5----5----5----5----5----5----5----|
E|---------|---------|---------|---------|-----------------------------------------|

E|-----------------------------------------|-----------------------------------------|
B|-----------------------------------------|-----------------------------------------|
G|-----------------------------------------|-----------------------------------------|
D|-7----7----7----7----7----7----7----7----|-7----7----7----7----7----7----7----7----|
A|-5----5----5----5----5----5----5----5----|-5----5----5----5----5----5----5----5----|
E|-----------------------------------------|-----------------------------------------|

E|-----------------------------------------|-----------------------------------------|
B|-----------------------------------------|-----------------------------------------|
G|-----------------------------------------|-----------------------------------------|
D|-7----7----7----7----7----7----7----7----|-7----7----7----7----7----7----7----7----|
A|-5----5----5----5----5----5----5----5----|-5----5----5----5----5----5----5----5----|
E|-----------------------------------------|-----------------------------------------|

E|-----------------------------------------|-----------------------------------------|
B|-----------------------------------------|-----------------------------------------|
G|-----------------------------------------|-----------------------------------------|
D|-7----7----7----7----7----7----7----7----|-7----7----7----7----7----7----7----7----|
A|-5----5----5----5----5----5----5----5----|-5----5----5----5----5----5----5----5----|
E|-----------------------------------------|-----------------------------------------|

E|-----------------------------------------|-----------------------------------------|
B|-----------------------------------------|-----------------------------------------|
G|-----------------------------------------|-----------------------------------------|
D|-7----7----7----7----7----7----7----7----|-7----7----7----7----7----7----7----7----|
A|-5----5----5----5----5----5----5----5----|-5----5----5----5----5----5----5----5----|
E|-----------------------------------------|-----------------------------------------|

E|-----------------------------------------|-----------------------------------------|
B|-----------------------------------------|-----------------------------------------|
G|-----------------------------------------|-----------------------------------------|
D|-7----7----7----7----7----7----7----7----|-7----7----7----7----7----7----7----7----|
A|-5----5----5----5----5----5----5----5----|-5----5----5----5----5----5----5----5----|
E|-----------------------------------------|-----------------------------------------|

E|-----------------------------------------|-----------------------------------------|
B|-----------------------------------------|-----------------------------------------|
G|-----------------------------------------|-----------------------------------------|
D|-7----7----7----7----7----7----7----7----|-7----7----7----7----7----7----7----7----|
A|-5----5----5----5----5----5----5----5----|-5----5----5----5----5----5----5----5----|
E|-----------------------------------------|-----------------------------------------|

E|-----------------------------------------|-----------------------------------------|
B|-----------------------------------------|-----------------------------------------|
G|-----------------------------------------|-----------------------------------------|
D|-7----7----7----7----7----7----7----7----|-7----7----7----7----7----7----7----7----|
A|-5----5----5----5----5----5----5----5----|-5----5----5----5----5----5----5----5----|
E|-----------------------------------------|-----------------------------------------|

E|-----------------------------------------|-----------------------------------------|
B|-----------------------------------------|-----------------------------------------|
G|-----------------------------------------|-----------------------------------------|
D|-7----7----7----7----7----7----7----7----|-7----7----7----7----7----7----7----7----|
A|-5----5----5----5----5----5----5----5----|-5----5----5----5----5----5----5----5----|
E|-----------------------------------------|-----------------------------------------|

E|-----------------------------------------|-----------------------------------------|
B|-----------------------------------------|-----------------------------------------|
G|-----------------------------------------|-----------------------------------------|
D|-7----7----7----7----7----7----7----7----|-7----7----7----7----7----7----7----7----|
A|-5----5----5----5----5----5----5----5----|-5----5----5----5----5----5----5----5----|
E|-----------------------------------------|-----------------------------------------|

E|-----------------------------------------|-----------------------------------------|
B|-----------------------------------------|-----------------------------------------|
G|-----------------------------------------|-----------------------------------------|
D|-7----7----7----7----7----7----7----7----|-7----7----7----7----7----7----7----7----|
A|-5----5----5----5----5----5----5----5----|-5----5----5----5----5----5----5----5----|
E|-----------------------------------------|-----------------------------------------|

E|-----------------------------------------|---------|---------|---------|---------|
B|-----------------------------------------|---------|---------|---------|---------|
G|-----------------------------------------|-2-------|-2-------|-2-------|-2-------|
D|-7----7----7----7----7----7----7----7----|-2-------|-2-------|-2-------|-2-------|
A|-5----5----5----5----5----5----5----5----|-0-------|-0-------|-0-------|-0-------|
E|-----------------------------------------|---------|---------|---------|---------|

E|---------|---------|---------|---------|---------|-------------------------------------------------------------|
B|---------|---------|---------|---------|---------|-------------------------------------------------------------|
G|-2-------|-2-------|-2-------|-2-------|-2-------|-------------------------------------------------------------|
D|-2-------|-2-------|-2-------|-2-------|-2-------|-------------------------------------------------------------|
A|-0-------|-0-------|-0-------|-0-------|-0-------|-7----7----7----7----7----7----7----7----7----7----7----7----|
E|---------|---------|---------|---------|---------|-5----5----5----5----5----5----5----5----5----5----5----5----|

E|-------------------------------------------------------------|-------------------------------------------------------------|
B|-------------------------------------------------------------|-------------------------------------------------------------|
G|-------------------------------------------------------------|-------------------------------------------------------------|
D|-------------------------------------------------------------|-------------------------------------------------------------|
A|-7----7----7----7----7----7----7----7----7----7----7----7----|-7----7----7----7----7----7----7----7----7----7----7----7----|
E|-5----5----5----5----5----5----5----5----5----5----5----5----|-5----5----5----5----5----5----5----5----5----5----5----5----|

E|---------|--------------------------------------|---------|--------------------|---------|
B|---------|--------------------------------------|---------|--------------------|---------|
G|-2-------|-2------------------------------------|---------|--------------------|---------|
D|-2-------|-2------------------------------------|-3-------|-5------7-----5-----|-7-------|
A|-0-------|-0------3----3----3----3----2----0----|-3-------|-5------7-----5-----|-7-------|
E|---------|--------------------------------------|-1-------|-3------5-----3-----|-5-------|

E|----------------------|---------|--------------------|---------|----------------------|
B|----------------------|---------|--------------------|---------|----------------------|
G|----------------------|---------|--------------------|---------|----------------------|
D|-7-------7----X---X---|-3-------|-5------7-----5-----|-7-------|-7-------7----X---X---|
A|-7-------7----X---X---|-3-------|-5------7-----5-----|-7-------|-7-------7----X---X---|
E|-5-------5----X---X---|-1-------|-3------5-----3-----|-5-------|-5-------5----X---X---|

E|---------|--------------------|---------|----------------------|---------|--------------------|
B|---------|--------------------|---------|----------------------|---------|--------------------|
G|---------|--------------------|---------|----------------------|---------|--------------------|
D|-3-------|-5------7-----5-----|-7-------|-7-------7----X---X---|-3-------|-5------7-----5-----|
A|-3-------|-5------7-----5-----|-7-------|-7-------7----X---X---|-3-------|-5------7-----5-----|
E|-1-------|-3------5-----3-----|-5-------|-5-------5----X---X---|-1-------|-3------5-----3-----|

E|---------|----------------------|---------|--------------------|---------14--15--14---|
B|---------|----------------------|---------|--------------------|-17-------------------|
G|---------|----------------------|---------|--------------------|----------------------|
D|-7-------|-7-------7----X---X---|-3-------|-5------7-----5-----|----------------------|
A|-7-------|-7-------7----X---X---|-3-------|-5------7-----5-----|----------------------|
E|-5-------|-5-------5----X---X---|-1-------|-3------5-----3-----|----------------------|

E|---------14--15--14---|-17---15---14---------------------------------------|------------------------------------------0---|
B|-17-------------------|----------------17---15---13------------------------|----------------------------------------------|
G|----------------------|-------------------------------16---14---12---11----|-9----7----9----7---------------------%-------|
D|----------------------|----------------------------------------------------|---------------------9----7-----------%-------|
A|----------------------|----------------------------------------------------|-------------------------------7--------------|
E|----------------------|----------------------------------------------------|----------------------------------------------|

E|-12---0----0----14---0----0----12---0----0----14---0----0----|-15---0----0----17---0----0----15---0----0----14---0----0----|
B|-------------------------------------------------------------|-------------------------------------------------------------|
G|-------------------------------------------------------------|-------------------------------------------------------------|
D|-------------------------------------------------------------|-------------------------------------------------------------|
A|-------------------------------------------------------------|-------------------------------------------------------------|
E|-------------------------------------------------------------|-------------------------------------------------------------|

E|-12---0----0----10---0----0----8----0----0----10---8----7----|--------------------------------------------------------|
B|-------------------------------------------------------------|-10---8----7--------------------------------------------|
G|-------------------------------------------------------------|----------------9----8----7-----------------------------|
D|-------------------------------------------------------------|-------------------------------9----8----7--------------|
A|-------------------------------------------------------------|----------------------------------------------10---7----|
E|-------------------------------------------------------------|--------------------------------------------------------|

E|-------------------------------------------------------------|-------------------------------------------------------------|
B|-------------------------------------------------------------|-------------------------------------------------------------|
G|-7----9----7----9----7----9----7----9----7----9----7----9----|-7----9----7----9----7----9----7----9----7----9----7----9----|
D|-------------------------------------------------------------|-------------------------------------------------------------|
A|-------------------------------------------------------------|-------------------------------------------------------------|
E|-------------------------------------------------------------|-------------------------------------------------------------|

E|---------|---------14--15--14---|---------|---------------------------------15--17--15---17----|
B|---------|-15-------------------|-17------|-15--17--15--17--15------15--17---------------------|
G|---------|----------------------|---------|---------------------16-----------------------------|
D|---------|----------------------|---------|----------------------------------------------------|
A|---------|----------------------|---------|----------------------------------------------------|
E|-0-------|----------------------|---------|----------------------------------------------------|

E|-17--15--14--15--14------14----------------------12--------|----------------------------|
B|---------------------17------17--15--17--15--13------15----|-12-------------------------|
G|-----------------------------------------------------------|-----14----14--12-----------|
D|-----------------------------------------------------------|---------------------14-----|
A|-----------------------------------------------------------|----------------------------|
E|-----------------------------------------------------------|----------------------------|

E|-------------------|--------------------------|----------------------|--------------------------|
B|-12------12---10---|-12-----10----12----13----|-12------10--12--10---|--------------------10----|
G|-------------------|--------------------------|----------------------|-11-----11----12----------|
D|-------------------|--------------------------|----------------------|--------------------------|
A|-------------------|--------------------------|----------------------|--------------------------|
E|-------------------|--------------------------|----------------------|--------------------------|

E|-----------------------------------------------------------------|-----------------------------------------------------------------|
B|-----------------------------------------------------------------|-----------------------------------------------------------------|
G|-----------------------------------------------------------------|-----------------------------------------------------------------|
D|-7---9---7---9---7---9---7---9---7---9---7---9---7---9---7---9---|-7---9---7---9---7---9---7---9---7---9---7---9---7---9---7---9---|
A|-----------------------------------------------------------------|-----------------------------------------------------------------|
E|-----------------------------------------------------------------|-----------------------------------------------------------------|

E|-----------------------------------------------------------------|-----------------------------------------------------------------|
B|-----------------------------------------------------------------|-----------------------------------------------------------------|
G|-----------------------------------------------------------------|-----------------------------------------------------------------|
D|-7---9---7---9---7---9---7---9---7---9---7---9---7---9---7---9---|-7---9---7---9---7---9---7---9---7---9---7---9---7---9---7---9---|
A|-----------------------------------------------------------------|-----------------------------------------------------------------|
E|-----------------------------------------------------------------|-----------------------------------------------------------------|

E|--------------------------------------------------------------|--------------------------------------------------------------|
B|--------------------------------------------------------------|--------------------------------------------------------------|
G|--------------------------------------------------------------|--------------------------------------------------------------|
D|-9---9---9---7---7---7---6---6---6---7---7---7---7---5--------|-9---9---9---7---7---7---6---6---6---7---7---7---7---5--------|
A|---------------------------------------------------------8----|---------------------------------------------------------8----|
E|--------------------------------------------------------------|--------------------------------------------------------------|

E|---------|---------|--------------------------------------------------------------|
B|---------|---------|--------------------------------------------------------------|
G|-9-------|-9-------|--------------------------------------------------------------|
D|-9-------|-9-------|-9---9---9---7---7---7---6---6---6---7---7---7---7---5--------|
A|-7-------|-7-------|---------------------------------------------------------8----|
E|-0-------|-0-------|--------------------------------------------------------------|

E|--------------------------------------------------------------|-----------------------------------------------------|
B|--------------------------------------------------------------|-----------------------------------------------------|
G|--------------------------------------------------------------|-9------------9------------9------------9------------|
D|-9---9---9---7---7---7---6---6---6---7---7---7---7---5--------|-9------------9------------9------------9------------|
A|---------------------------------------------------------8----|-7------------7------------7------------7------------|
E|--------------------------------------------------------------|------0---0--------0---0--------0---0--------0---0---|

E|--------------------------------------------|-----------------------------------------------------|
B|--------------------------------------------|-----------------------------------------------------|
G|-9------------9----9----5----5----7----9----|-9------------9------------9------------9------------|
D|-9------------9----9----5----5----7----9----|-9------------9------------9------------9------------|
A|-7------------7----7----3----3----5----7----|-7------------7------------7------------7------------|
E|------0---0---------------------------------|------0---0--------0---0--------0---0--------0---0---|

E|-------------------------------------------|-----------------------------------------------------|
B|-------------------------------------------|-----------------------------------------------------|
G|-9------------9------------5----5----7-----|-9------------9------------9------------9------------|
D|-9------------9------------5----5----7-----|-9------------9------------9------------9------------|
A|-7------------7------------3----3----5-----|-7------------7------------7------------7------------|
E|------0---0--------0---0-------------------|------0---0--------0---0--------0---0--------0---0---|

E|--------------------------------------------------------|-----------------------------------------------------|
B|--------------------------------------------------------|-----------------------------------------------------|
G|-9------------9------------9----------------------------|-9------------9------------9------------9------------|
D|-9------------9------------9--------------------4-------|-9------------9------------9------------9------------|
A|-7------------7------------7------------5---7-------5---|-7------------7------------7------------7------------|
E|------0---0--------0---0--------0---0-------------------|------0---0--------0---0--------0---0--------0---0---|

E|-------------------------|-----------------------------------------------------|--------------------------------------------------|
B|-------------------------|-----------------------------------------------------|--------------------------------------------------|
G|-5-----------------------|-9------------9------------9------------9------------|-9------------9------------9------------9----9----|
D|-5---------------4-------|-9------------9------------9------------9------------|-9------------9------------9------------9----9----|
A|-3-------5---7-------5---|-7------------7------------7------------7------------|-7------------7------------7------------7----7----|
E|-------------------------|------0---0--------0---0--------0---0--------0---0---|------0---0--------0---0--------0---0-------------|

E|---------|-------------------------|-----------------------------------------------------|
B|---------|-------------------------|-----------------------------------------------------|
G|-5-------|-7-----------------------|-9------------9------------9------------9------------|
D|-5-------|-7---------------4-------|-9------------9------------9------------9------------|
A|-3-------|-5-------5---7-------5---|-7------------7------------7------------7------------|
E|---------|-------------------------|------0---0--------0---0--------0---0--------0---0---|

E|--------------------------------------------------|-----------------------------------------------------|
B|--------------------------------------------------|-----------------------------------------------------|
G|-9------------9------------9------------9----7----|-9------------9------------9------------9------------|
D|-9------------9------------9------------9----7----|-9------------9------------9------------9------------|
A|-7------------7------------7------------7----5----|-7------------7------------7------------7------------|
E|------0---0--------0---0--------0---0-------------|------0---0--------0---0--------0---0--------0---0---|

E|--------------------------------------------------------|-----------------------------------------------------|
B|--------------------------------------------------------|-----------------------------------------------------|
G|-9------------9------------9----------------------------|-9------------9------------9------------9------------|
D|-9------------9------------9--------------------4-------|-9------------9------------9------------9------------|
A|-7------------7------------7------------5---7-------5---|-7------------7------------7------------7------------|
E|------0---0--------0---0--------0---0-------------------|------0---0--------0---0--------0---0--------0---0---|

E|-------------------------|-----------------------------------------------------|--------------------------------------------------|
B|-------------------------|-----------------------------------------------------|--------------------------------------------------|
G|-5-----------------------|-9------------9------------9------------9------------|-9------------9------------9------------9----9----|
D|-5---------------4-------|-9------------9------------9------------9------------|-9------------9------------9------------9----9----|
A|-3-------5---7-------5---|-7------------7------------7------------7------------|-7------------7------------7------------7----7----|
E|-------------------------|------0---0--------0---0--------0---0--------0---0---|------0---0--------0---0--------0---0-------------|

E|----------------------------------------------------|----------------------------------------------------|
B|----------------------------------------------------|----------------------------------------------------|
G|----------------------------------------------7-----|----------------------------------------------------|
D|-9---7-------7---9----9---9---9---9-------7---------|-9---7-------7---9----9---9---9---7-------7---------|
A|---------10---------------------------10------------|---------10---------------------------10------9-----|
E|----------------------------------------------------|----------------------------------------------------|

E|----------------------------------------------------|--------------------------------------------------------|
B|----------------------------------------------------|--------------------------------------------------------|
G|----------------------------------------------7-----|--------------------------------------------------------|
D|-9---7-------7---9----9---9---9---9-------7---------|-9---7-------7---9----9---9---9----9------------4-------|
A|---------10---------------------------10------------|---------10-----------------------------5---7-------7---|
E|----------------------------------------------------|--------------------------------------------------------|

E|-----------------------------------------------------|--------------------------------------------------|
B|-----------------------------------------------------|--------------------------------------------------|
G|--------------9------------9------------9------------|-9------------9------------9------------9----7----|
D|--------------9------------9------------9------------|-9------------9------------9------------9----7----|
A|-7------------7------------7------------7------------|-7------------7------------7------------7----5----|
E|------0---0--------0---0--------0---0--------0---0---|------0---0--------0---0--------0---0-------------|

E|----------------------------------------------------|----------------------------------------------------|
B|----------------------------------------------------|----------------------------------------------------|
G|----------------------------------------------------|----------------------------------------------------|
D|-9---7-------7---9----9---9---9---9-------7---9-----|-12--10--9---10--12---12--12--12--10--9---10--12----|
A|---------10---------------------------10------------|----------------------------------------------------|
E|----------------------------------------------------|----------------------------------------------------|

E|----------------------------------------------------|--------------------------------------------------------|
B|----------------------------------------------------|--------------------------------------------------------|
G|----------------------------------------------------|--------------------------------------------------------|
D|-9---7-------7---9----9---9---9---9-------7---9-----|-9---7-------7---9----9---9---9----9------------4-------|
A|---------10---------------------------10------------|---------10-----------------------------5---7-------7---|
E|----------------------------------------------------|--------------------------------------------------------|

E|-----------------------------------------------------|--------------------------------------------------|
B|-----------------------------------------------------|--------------------------------------------------|
G|--------------9------------9------------9------------|-9------------9------------9------------9----7----|
D|--------------9------------9------------9------------|-9------------9------------9------------9----7----|
A|-7------------7------------7------------7------------|-7------------7------------7------------7----5----|
E|------0---0--------0---0--------0---0--------0---0---|------0---0--------0---0--------0---0-------------|

E|-----------------------------------------------------|--------------------------------------------------------|
B|-----------------------------------------------------|--------------------------------------------------------|
G|-9------------9------------9------------9------------|-9------------9------------9----------------------------|
D|-9------------9------------9------------9------------|-9------------9------------9--------------------4-------|
A|-7------------7------------7------------7------------|-7------------7------------7------------5---7-------5---|
E|------0---0--------0---0--------0---0--------0---0---|------0---0--------0---0--------0---0-------------------|

E|-----------------------------------------------------|--------------------------------------------------------|
B|-----------------------------------------------------|--------------------------------------------------------|
G|-9------------9------------9------------9------------|-9------------9------------9----------------------------|
D|-9------------9------------9------------9------------|-9------------9------------9--------------------4-------|
A|-7------------7------------7------------7------------|-7------------7------------7------------5---7-------5---|
E|------0---0--------0---0--------0---0--------0---0---|------0---0--------0---0--------0---0-------------------|

E|-----------------------------------------------------|--------------------------------------------------------|
B|-----------------------------------------------------|--------------------------------------------------------|
G|-9------------9------------9------------9------------|-9------------9------------9----------------------------|
D|-9------------9------------9------------9------------|-9------------9------------9--------------------4-------|
A|-7------------7------------7------------7------------|-7------------7------------7------------5---7-------5---|
E|------0---0--------0---0--------0---0--------0---0---|------0---0--------0---0--------0---0-------------------|

E|-----------------------------------------------------|-----------------------------------------------------|
B|-----------------------------------------------------|-----------------------------------------------------|
G|-9------------9------------9------------9------------|-9------------9------------9------------9------------|
D|-9------------9------------9------------9------------|-9------------9------------9------------9------------|
A|-7------------7------------7------------7------------|-7------------7------------7------------7------------|
E|------0---0--------0---0--------0---0--------0---0---|------0---0--------0---0--------0---0--------0---0---|

E|---------|---------|-----------------------------------------------------|----------------------------------------------|
B|---------|---------|-----------------------------------------------------|----------------------------------------------|
G|-5-------|-7-------|-4----4---4---7---5---4-------4----4---4--------4----|-4----4---4---7---5---4-------4----------4----|
D|-5-------|-7-------|--------------------------7----------------7---------|--------------------------7---------7---------|
A|-3-------|-5-------|-----------------------------------------------------|----------------------------------------------|
E|---------|---------|-----------------------------------------------------|----------------------------------------------|

E|---------|---------|-----------------------------------------------------|----------------------------------------------|
B|---------|---------|-----------------------------------------------------|----------------------------------------------|
G|-5-------|-7-------|-4----4---4---7---5---4-------4----4---4--------4----|-4----4---4---7---5---4-------4----------4----|
D|-5-------|-7-------|--------------------------7----------------7---------|--------------------------7---------7---------|
A|-3-------|-5-------|-----------------------------------------------------|----------------------------------------------|
E|---------|---------|-----------------------------------------------------|----------------------------------------------|

E|-----------------------------------------------------|--------------------------------------------------------|
B|-----------------------------------------------------|--------------------------------------------------------|
G|-9------------9------------9------------9------------|-9------------9------------9----------------------------|
D|-9------------9------------9------------9------------|-9------------9------------9--------------------4-------|
A|-7------------7------------7------------7------------|-7------------7------------7------------5---7-------5---|
E|------0---0--------0---0--------0---0--------0---0---|------0---0--------0---0--------0---0-------------------|

E|-----------------------------------------------------|--------------------------------------------------------|
B|-----------------------------------------------------|--------------------------------------------------------|
G|-9------------9------------9------------9------------|-9------------9------------9----------------------------|
D|-9------------9------------9------------9------------|-9------------9------------9--------------------4-------|
A|-7------------7------------7------------7------------|-7------------7------------7------------5---7-------5---|
E|------0---0--------0---0--------0---0--------0---0---|------0---0--------0---0--------0---0-------------------|

E|-----------------------------------------------------|--------------------------------------------------------|
B|-----------------------------------------------------|--------------------------------------------------------|
G|-9------------9------------9------------9------------|-9------------9------------9----------------------------|
D|-9------------9------------9------------9------------|-9------------9------------9--------------------4-------|
A|-7------------7------------7------------7------------|-7------------7------------7------------5---7-------5---|
E|------0---0--------0---0--------0---0--------0---0---|------0---0--------0---0--------0---0-------------------|

E|-----------------------------------------------------|-----------------------------------------------------|
B|-----------------------------------------------------|-----------------------------------------------------|
G|-9------------9------------9------------9------------|-9------------9------------9------------9------------|
D|-9------------9------------9------------9------------|-9------------9------------9------------9------------|
A|-7------------7------------7------------7------------|-7------------7------------7------------7------------|
E|------0---0--------0---0--------0---0--------0---0---|------0---0--------0---0--------0---0--------0---0---|

E|---------|---------|---------|---------|
B|---------|---------|---------|---------|
G|-5-------|-7-------|-9-------|-%-------|
D|-5-------|-7-------|-9-------|-%-------|
A|-3-------|-5-------|-7-------|---------|
E|---------|---------|-0-------|---------|
Iron Maiden - Rime of the Ancient Mariner
Iron Maiden - Rime of the Ancient Mariner.gp3