Iron Maiden - Rime of the Ancient Mariner (2)

Iron Maiden



Title: Rime Of The Ancient Mariner
Album: Powerslave
Artist: Iron Maiden
Author: Steve Harris

Track 1: Bass
G|--------------------------------------------------------|-----------------------------------------------------|
D|--------------------------------------------------------|-----------------------------------------------------|
A|-10--9---7-------7----7---7---7----7---7---7----7---7---|-7----7---7---7----7---7---7----7---7----------------|
E|-------------10-----------------------------------------|----------------------------------------8----8---8---|

G|--------------------------------------------------|-----------------------------------------------------|
D|--------------------------------------------------|-----------------------------------------------------|
A|----------7-----7---7---7----7---7---7----7---7---|-7----7---7---7----7---7---7----7---7----------------|
E|-10---10------------------------------------------|----------------------------------------8----8---8---|

G|--------------------------------------------------------------|-----------------------------------------------------------------|
D|--------------------------------------------------------------|----------------------------------------------------%-------%----|
A|--------------10--9---7-------10--9---7-------10--9---7-------|-10--9---7-------10--9---7-------10--9---7-------10-%----10-%----|
E|-10---10--10--------------10--------------10--------------10--|-------------10--------------10--------------10------------------|

G|-----------------------------------------------------|-----------------------------------------------------|
D|-----------------------------------------------------|-----------------------------------------------------|
A|-----7---9---7-----7---7---7----7---7---7----7---7---|-7----7---7---7----7---7---7----7---7---7----7---7---|
E|-10--------------------------------------------------|-----------------------------------------------------|

G|-----------------------------------------------------|-----------------------------------------------------|
D|-----------------------------------------------------|-----------------------------------------------------|
A|-7----7---7---7----7---7---7----7---7---7----7---7---|-7----7---7---7----7---7---7----7---7---7----7---7---|
E|-----------------------------------------------------|-----------------------------------------------------|

G|--------------------------------------------------------|-----------------------------------------------------|
D|--------------------------------------------------------|-----------------------------------------------------|
A|-5---7---9-------7----7---7---7----7---7---7----7---7---|-7----7---7------------------------------------------|
E|-------------10-----------------------------------------|--------------8----8---8---8----8---8---8----8---8---|

G|--------------------------------------------------------|-----------------------------------------------------|
D|--------------------------------------------------------|-----------------------------------------------------|
A|-5---7---9-------7----7---7---7----7---7---7----7---7---|-7----7---7---7----7---7---7----7---7---7----7---7---|
E|-------------10-----------------------------------------|-----------------------------------------------------|

G|-----------------------------------------------------|-----------------------------------------------------|
D|-----------------------------------------------------|-----------------------------------------------------|
A|-7----7---7------------------------------------------|--------------5----5---5---5----5---5---5----5---5---|
E|--------------8----8---8---8----8---8---8----8---8---|-8----8---8------------------------------------------|

G|--------------------------------------------------------|-----------------------------------------------------|
D|--------------------------------------------------------|-----------------------------------------------------|
A|-5---7---9-------7----7---7---7----7---7---7----7---7---|-7----7---7---7----7---7---7----7---7---7----7---7---|
E|-------------10-----------------------------------------|-----------------------------------------------------|

G|-----------------------------------------------------|-----------------------------------------------------|
D|-----------------------------------------------------|-----------------------------------------------------|
A|-7----7---7---7----7---7---7----7---7---7----7---7---|-7----7---7---7----7---7---7----7---7---7----7---7---|
E|-----------------------------------------------------|-----------------------------------------------------|

G|--------------------------------------------------------|-----------------------------------------------------|
D|--------------------------------------------------------|-----------------------------------------------------|
A|-5---7---9-------7----7---7---7----7---7---7----7---7---|-7----7---7------------------------------------------|
E|-------------10-----------------------------------------|--------------8----8---8---8----8---8---8----8---8---|

G|--------------------------------------------------------|-----------------------------------------------------|
D|--------------------------------------------------------|-----------------------------------------------------|
A|-5---7---9-------7----7---7---7----7---7---7----7---7---|-7----7---7---7----7---7---7----7---7---7----7---7---|
E|-------------10-----------------------------------------|-----------------------------------------------------|

G|-----------------------------------------------------|-----------------------------------------------------|
D|-----------------------------------------------------|-----------------------------------------------------|
A|-7----7---7------------------------------------------|--------------5----5---5---5----5---5---5----5---5---|
E|--------------8----8---8---8----8---8---8----8---8---|-8----8---8------------------------------------------|

G|--------------------------------------------------------|-----------------------------------------------------|
D|--------------------------------------------------------|-----------------------------------------------------|
A|-5---7---9-------7----7---7---7----7---7---7----7---7---|-7----7---7---7----7---7---7----7---7---7----7---7---|
E|-------------10-----------------------------------------|-----------------------------------------------------|

G|--------------------------------------------------------------|-4-----4-----------------------------------------------------|
D|--------------5---4---2---4---5--%----5---5---5---4---2---4---|----------%--5---4---2---4---5--%----5---5---5---4---2---4---|
A|-7----7---7----------------------%----------------------------|----------%---------------------%----------------------------|
E|--------------------------------------------------------------|-------------------------------------------------------------|

G|-------------------------------------------------------------|-4-----4-----------------------------------------------------|
D|-0-----0--%--5---4---2---4---5--%----5---5---5---4---2---4---|----------%--5---4---2---4---5--%----5---5---5--%----5--%----|
A|----------%---------------------%----------------------------|----------%---------------------%---------------%-------%----|
E|-------------------------------------------------------------|-------------------------------------------------------------|

G|-----------------------------------------------------|-----------------------------------------------------|
D|-----------------------------------------------------|-----------------------------------------------------|
A|-5---7---9---7-----7---7---7----7---7---7----7---7---|-7----7---7---7----7---7---7----7---7---7----7---7---|
E|-----------------------------------------------------|-----------------------------------------------------|

G|--------------------------------------------------------------|-------------------------------------------------------------|
D|--------------5---4---2---4---5--%----5---5---5---4---2---4---|-5-----5--%--7---5---4---5---7--%----7---7---7---5---4---5---|
A|-7----5---5----------------------%----------------------------|----------%---------------------%----------------------------|
E|--------------------------------------------------------------|-------------------------------------------------------------|

G|-------------------------------------------------------------|-------------------------------------------------------------|
D|-7-----7--%--5---4---2---4---5--%----5---5---5---4---2---4---|-5-----5--%--7---5---4---5---7--%----7---7---7--%----7--%----|
A|----------%---------------------%----------------------------|----------%---------------------%---------------%-------%----|
E|-------------------------------------------------------------|-------------------------------------------------------------|

G|-----------------------------------------------------|-----------------------------------------------------|
D|-----------------------------------------------------|-----------------------------------------------------|
A|-5---7---9---7-----7---7---7----7---7---7----7---7---|-7----7---7---7----7---7---7----7---7---7----7---7---|
E|-----------------------------------------------------|-----------------------------------------------------|

G|-----------------------------------------------------|-----------------------------------------------------|
D|-----------------------------------------------------|-----------------------------------------------------|
A|-7----5---5---7----7---7---7----7---7---7----7---7---|-7----7---7---7----7---7---7----7---7---7----7---7---|
E|-----------------------------------------------------|-----------------------------------------------------|

G|--------------------------------------------------------|-----------------------------------------------------|
D|--------------------------------------------------------|-----------------------------------------------------|
A|-5---7---9-------7----7---7---7----7---7---7----7---7---|-7----7---7---7----7---7---7----7---7---7----7---7---|
E|-------------10-----------------------------------------|-----------------------------------------------------|

G|--------------------------------------------------------|-----------------------------------------------------|
D|--------------------------------------------------------|-----------------------------------------------------|
A|-5---7---9-------7----7---7---7----7---7---7----7---7---|-7----7---7---7----7---7---7----7---7---7----7---7---|
E|-------------10-----------------------------------------|-----------------------------------------------------|

G|--------------------------------------------------------|-----------------------------------------------------|
D|--------------------------------------------------------|-----------------------------------------------------|
A|-5---7---9-------7----7---7---7----7---7---7----7---7---|-7----7---7---7----7---7---7----7---7---7----7---7---|
E|-------------10-----------------------------------------|-----------------------------------------------------|

G|-----------------------------------------------------|-----------------------------------------------------|
D|-----------------------------------------------------|-----------------------------------------------------|
A|-7----7---7------------------------------------------|--------------5----5---5---5----5---5---5----5---5---|
E|--------------8----8---8---8----8---8---8----8---8---|-8----8---8------------------------------------------|

G|--------------------------------------------------------------|-------------------------------------------------|
D|-----------------%-------------------------------%------------|-------------------------------------------------|
A|-5----5---5---7--%----7---7---10--9---7---5---7--%----7---7---|-5----7-----7---7---10--9---7---5---7----7---7---|
E|--------------------------------------------------------------|-------------------------------------------------|

G|-----------------------------------------------------|-----------------------------------------------------|
D|-----------------------------------------------------|-----------------------------------------------------|
A|-7----7---7------------------------------------------|--------------5----5---5---5----5---5---5----5---5---|
E|--------------8----8---8---8----8---8---8----8---8---|-8----8---8------------------------------------------|

G|--------------------------------------------------------------|-------------------------------------------------|
D|-----------------%-------------------------------%------------|-------------------------------------------------|
A|-5----5---5---7--%----7---7---10--9---7---5---7--%----7---7---|-5----7-----7---7---10--9---7---5---7----7---7---|
E|--------------------------------------------------------------|-------------------------------------------------|

G|-----------------------------------------------------|-----------------------------------------------------|
D|-----------------------------------------------------|-----------------------------------------------------|
A|-7----7---7---7----7---7---7----7---7---7----7---7---|-7----7---7---7----7---7---7----7---7---7----7---7---|
E|-----------------------------------------------------|-----------------------------------------------------|

G|--------------------------------------------------------|-----------------------------------------------------|
D|--------------------------------------------------------|-----------------------------------------------------|
A|-5---7---9-------7----7---7---7----7---7---7----7---7---|-7----7---7---7----7---7---7----7---7---7----7---7---|
E|-------------10-----------------------------------------|-----------------------------------------------------|

G|--------------------------------------------------------|-----------------------------------------------------|
D|--------------------------------------------------------|-----------------------------------------------------|
A|-5---7---9-------7----7---7---7----7---7---7----7---7---|-7----7---7---7----7---7---7----7---7---7----7---7---|
E|-------------10-----------------------------------------|-----------------------------------------------------|

G|--------------------------------------------------------|-----------------------------------------------------|
D|--------------------------------------------------------|-----------------------------------------------------|
A|-5---7---9-------7----7---7---7----7---7---7----7---7---|-7----7---7---7----7---7---7----7---7---7----7---7---|
E|-------------10-----------------------------------------|-----------------------------------------------------|

G|-----------------------------------------------------|-----------------------------------------------------|
D|-----------------------------------------------------|-----------------------------------------------------|
A|-7----7---7------------------------------------------|--------------5----5---5---5----5---5---5----5---5---|
E|--------------8----8---8---8----8---8---8----8---8---|-8----8---8------------------------------------------|

G|--------------------------------------------------------------|-------------------------------------------------|
D|-----------------%-------------------------------%------------|-------------------------------------------------|
A|-5----5---5---7--%----7---7---10--9---7---5---7--%----7---7---|-5----7-----7---7---10--9---7---5---7----7---7---|
E|--------------------------------------------------------------|-------------------------------------------------|

G|-----------------------------------------------------|-----------------------------------------------------|
D|-----------------------------------------------------|-----------------------------------------------------|
A|-7----7---7------------------------------------------|--------------5----5---5---5----5---5---5----5---5---|
E|--------------8----8---8---8----8---8---8----8---8---|-8----8---8------------------------------------------|

G|--------------------------------------------------------------|-------------------------------------------------|
D|-----------------%-------------------------------%------------|-------------------------------------------------|
A|-5----5---5---7--%----7---7---10--9---7---5---7--%----7---7---|-5----7-----7---7---10--9---7---5---7----7---7---|
E|--------------------------------------------------------------|-------------------------------------------------|

G|-----------------------------------------------------|-----------------------------------------------------|
D|-----------------------------------------------------|-----------------------------------------------------|
A|-7----7---7---7----7---7---7----7---7---7----7---7---|-7----7---7---7----7---7---7----7---7---7----7---7---|
E|-----------------------------------------------------|-----------------------------------------------------|

G|--------------------------------------------------------|-----------------------------------------------------|
D|--------------------------------------------------------|-----------------------------------------------------|
A|-5---7---9-------7----7---7---7----7---7---7----7---7---|-7----7---7---7----7---7---7----7---7---7----7---7---|
E|-------------10-----------------------------------------|-----------------------------------------------------|

G|-----------------------------------------------------|-----------------------------------------------------|
D|-----------------------------------------------------|-----------------------------------------------------|
A|-7----7---7---5----5---5---5----5---5---5----5---5---|-5----5---5---5----5---5---5----5---5---5----5---5---|
E|-----------------------------------------------------|-----------------------------------------------------|

G|-----------------------------------------------------|-----------------------------------------------------|
D|-----------------------------------------------------|-----------------------------------------------------|
A|-5----5---5---7----7---7---7----7---7---7----7---7---|-7----7---7---7----7---7---7----7---7---7----7---7---|
E|-----------------------------------------------------|-----------------------------------------------------|

G|--------------------------------------------------------------|-----------------------------------------------------------------|
D|--------------------------------------------------------------|----------------------------------------------------%-------%----|
A|-7----7---7---10--9---7-------10--9---7-------10--9---7-------|-10--9---7-------10--9---7-------10--9---7-------10-%----10-%----|
E|--------------------------10--------------10--------------10--|-------------10--------------10--------------10------------------|

G|-----------------------------------------------------|-----------------------------------------------------|
D|-----------------------------------------------------|-----------------------------------------------------|
A|-----7---9---7-----7---7---7----7---7---7----7---7---|-7----7---7---7----7---7---7----7---7---7----7---7---|
E|-10--------------------------------------------------|-----------------------------------------------------|

G|--------------------------------------------------------------|-----------------------------------------------------------------|
D|--------------------------------------------------------------|----------------------------------------------------%-------%----|
A|-7----7---7---10--9---7-------10--9---7-------10--9---7-------|-10--9---7-------10--9---7-------10--9---7-------10-%----10-%----|
E|--------------------------10--------------10--------------10--|-------------10--------------10--------------10------------------|

G|----------------------------------|------------------------|----------------------------------------------------|
D|-----------------------%------%---|-%-----------%------%---|-%--------------------------------------------------|
A|-----7---9---7---------%------%---|-%-----------%------%---|-%--------------------------------------------------|
E|-10--------------0----------------|-------0----------------|-------0----0----0----2----2----2----3----3----3----|

G|-------------------------------------------------------------|---------------------------------|
D|-------------------------------------------------------------|----------------------%------%---|
A|-------------------------------------------------------------|----------------------%------%---|
E|-5----3----2----0----0----0----2----2----2----3----3----3----|-5----3----2----0----------------|

G|--------------------------|----------------------------------------------------|-------------------------------------------------------------|
D|-%--------------%------%--|-%--------------------------------------------------|-------------------------------------------------------------|
A|-%-----------7--%------%--|-%--------------------------------------------------|-------------------------------------------------------------|
E|-------0------------------|-------0----0----0----2----2----2----3----3----3----|-5----3----2----0----0----0----2----2----2----3----3----3----|

G|-------------------------------------------------------------|-------------------------------------------------------------|
D|-------------------------------5----5----5----4----4----4----|-0----0----0-------------------5----5----5----4----4----4----|
A|----------------3----3----3----------------------------------|----------------3----3----3----------------------------------|
E|-5----3----2-------------------------------------------------|-------------------------------------------------------------|

G|-------------------------------------------------------------|-------------------------------------------------------------|
D|-0----0----0-------------------5----5----5----4----4----4----|-0----0----0-------------------5----5----5----4----4----4----|
A|----------------3----3----3----------------------------------|----------------3----3----3----------------------------------|
E|-------------------------------------------------------------|-------------------------------------------------------------|

G|-------------------------------------------------------------|-------------------------------------------------------------|
D|-0----0----0-------------------5----5----5----4----4----4----|-0----0----0-------------------5----5----5----4----4----4----|
A|----------------0----0----0----------------------------------|----------------0----0----0----------------------------------|
E|-------------------------------------------------------------|-------------------------------------------------------------|

G|-------------------------------------------------------------|-------------------------------------------------------------|
D|-0----0----0-------------------5----5----5----4----4----4----|-0----0----0-------------------5----5----5----4----4----4----|
A|----------------0----0----0----------------------------------|----------------0----0----0----------------------------------|
E|-------------------------------------------------------------|-------------------------------------------------------------|

G|-------------------------------------------------------------|-------------------------------------------------------------|
D|-0----0----0-------------------5----5----5----4----4----4----|-0----0----0-------------------5----5----5----4----4----4----|
A|----------------3----3----3----------------------------------|----------------3----3----3----------------------------------|
E|-------------------------------------------------------------|-------------------------------------------------------------|

G|-------------------------------------------------------------|-------------------------------------------------------------|
D|-0----0----0-------------------5----5----5----4----4----4----|-0----0----0-------------------5----5----5----4----4----4----|
A|----------------3----3----3----------------------------------|----------------3----3----3----------------------------------|
E|-------------------------------------------------------------|-------------------------------------------------------------|

G|-------------------------------------------------------------|-------------------------------------------------------------|
D|-0----0----0-------------------5----5----5----4----4----4----|-0----0----0-------------------5----5----5----4----4----4----|
A|----------------0----0----0----------------------------------|----------------0----0----0----------------------------------|
E|-------------------------------------------------------------|-------------------------------------------------------------|

G|-------------------------------------------------------------|-------------------------------------------------------------|
D|-0----0----0-------------------5----5----5----4----4----4----|-0----0----0-------------------5----5----5----4----4----4----|
A|----------------0----0----0----------------------------------|----------------0----0----0----------------------------------|
E|-------------------------------------------------------------|-------------------------------------------------------------|

G|-----------------------------|--------------------|----------------------------------------------------|
D|-0----0----0----------%------|-%-----------%------|-%--------------------------------------------------|
A|----------------------%------|-%-----------%------|-%--------------------------------------------------|
E|----------------0------------|-------0------------|-------0----0----0----2----2----2----3----3----3----|

G|-------------------------------------------------------------|---------------------------------|
D|-------------------------------------------------------------|----------------------%------%---|
A|-------------------------------------------------------------|----------------------%------%---|
E|-5----3----2----0----0----0----2----2----2----3----3----3----|-5----3----2----0----------------|

G|------------------------|----------------------------------------------------|-------------------------------------------------------------|
D|-%-----------%------%---|-%--------------------------------------------------|-------------------------------------------------------------|
A|-%-----------%------%---|-%--------------------------------------------------|-------------------------------------------------------------|
E|-------0----------------|-------0----0----0----2----2----2----3----3----3----|-5----3----2----0----0----0----2----2----2----3----3----3----|

G|-------------------------------------------------------------|-------------------------------------------------------------|
D|-------------------------------5----5----5----4----4----4----|-0----0----0-------------------5----5----5----4----4----4----|
A|----------------3----3----3----------------------------------|----------------3----3----3----------------------------------|
E|-5----3----2-------------------------------------------------|-------------------------------------------------------------|

G|-------------------------------------------------------------|-------------------------------------------------------------|
D|-0----0----0-------------------5----5----5----4----4----4----|-0----0----0-------------------5----5----5----4----4----4----|
A|----------------3----3----3----------------------------------|----------------3----3----3----------------------------------|
E|-------------------------------------------------------------|-------------------------------------------------------------|

G|-------------------------------------------------------------|-------------------------------------------------------------|
D|-0----0----0-------------------5----5----5----4----4----4----|-0----0----0-------------------5----5----5----4----4----4----|
A|----------------0----0----0----------------------------------|----------------0----0----0----------------------------------|
E|-------------------------------------------------------------|-------------------------------------------------------------|

G|-------------------------------------------------------------|-------------------------------------------------------------|
D|-0----0----0-------------------5----5----5----4----4----4----|-0----0----0-------------------5----5----5----4----4----4----|
A|----------------0----0----0----------------------------------|----------------0----0----0----------------------------------|
E|-------------------------------------------------------------|-------------------------------------------------------------|

G|-------------------------------------------------------------|-------------------------------------------------------------|
D|-0----0----0-------------------5----5----5----4----4----4----|-0----0----0-------------------5----5----5----4----4----4----|
A|----------------3----3----3----------------------------------|----------------3----3----3----------------------------------|
E|-------------------------------------------------------------|-------------------------------------------------------------|

G|-------------------------------------------------------------|-------------------------------------------------------------|
D|-0----0----0-------------------5----5----5----4----4----4----|-0----0----0-------------------5----5----5----4----4----4----|
A|----------------3----3----3----------------------------------|----------------3----3----3----------------------------------|
E|-------------------------------------------------------------|-------------------------------------------------------------|

G|-------------------------------------------------------------|-------------------------------------------------------------|
D|-0----0----0-------------------5----5----5----4----4----4----|-0----0----0-------------------5----5----5----4----4----4----|
A|----------------0----0----0----------------------------------|----------------0----0----0----------------------------------|
E|-------------------------------------------------------------|-------------------------------------------------------------|

G|-------------------------------------------------------------|-------------------------------------------------------------|
D|-0----0----0-------------------5----5----5----4----4----4----|-0----0----0-------------------5----5----5----4----4----4----|
A|----------------0----0----0----------------------------------|----------------0----0----0----------------------------------|
E|-------------------------------------------------------------|-------------------------------------------------------------|

G|-------------------------------------------------------------|-------------------------------------------------------------|
D|-0----0----0-------------------------------------------------|-------------------------------------------------------------|
A|----------------9----9----12---9----9----9----9----9----12---|-9----9----9----9----9----12---9----9----9----9----9----12---|
E|-------------------------------------------------------------|-------------------------------------------------------------|

G|-------------------------------------------------------------|-------------------------------------------------------------|
D|----------------7----7----10---7----7----7----7----7----10---|-7----7----7----7----7----10---7----7----7----7----7----10---|
A|-9----9----9-------------------------------------------------|-------------------------------------------------------------|
E|-------------------------------------------------------------|-------------------------------------------------------------|

G|-------------------------------------------------------------|-------------------------------------------------------------|
D|-7----7----7-------------------------------------------------|-------------------------------------------------------------|
A|----------------7----7----10---7----7----7----7----7----10---|-7----7----7----7----7----10---7----7----7----7----7----10---|
E|-------------------------------------------------------------|-------------------------------------------------------------|

G|-------------------------------------------------------------|-------------------------------------------------------------|
D|-------------------------------------------------------------|-------------------------------------------------------------|
A|-7----7----7----8----8----11---8----8----8----8----8----11---|-8----8----8----10---10---13---10---10---10---10---10---13---|
E|-------------------------------------------------------------|-------------------------------------------------------------|

G|-------------------------------------------------------------|-------------------------------------------------------------|
D|-------------------------------------------------------------|-------------------------------------------------------------|
A|-10---10---10---9----9----12---9----9----9----9----9----12---|-9----9----9----9----9----12---9----9----9----9----9----12---|
E|-------------------------------------------------------------|-------------------------------------------------------------|

G|-------------------------------------------------------------|-------------------------------------------------------------|
D|----------------7----7----10---7----7----7----7----7----10---|-7----7----7----7----7----10---7----7----7----7----7----10---|
A|-9----9----9-------------------------------------------------|-------------------------------------------------------------|
E|-------------------------------------------------------------|-------------------------------------------------------------|

G|-------------------------------------------------------------|-------------------------------------------------------------|
D|-7----7----7-------------------------------------------------|-------------------------------------------------------------|
A|----------------7----7----10---7----7----7----7----7----10---|-7----7----7----7----7----10---7----7----7----7----7----10---|
E|-------------------------------------------------------------|-------------------------------------------------------------|

G|-------------------------------------------------------------|-------------------------------------------------------------|
D|-------------------------------------------------------------|----------------5----5----8----5----5----5----5----5----8----|
A|-7----7----7----8----8----11---8----8----8----8----8----11---|-8----8----8-------------------------------------------------|
E|-------------------------------------------------------------|-------------------------------------------------------------|

G|----------------------------------------------|-----------------------------------------|
D|-5----5----5----------------------------------|-----------------------------------------|
A|----------------------------------------------|-----------------------------------------|
E|----------------3----0----0----0----0----0----|-3----0----0----0----0----0----3----0----|

G|-----------------------------------------|-----------------------------------------|
D|-----------------------------------------|-----------------------------------------|
A|-----------------------------------------|-----------------------------------------|
E|-0----0----0----0----5----5----5----5----|-3----2----3----0----0----0----0----0----|

G|-----------------------------------------|-----------------------------------------|
D|-----------------------------------------|---------------------1----1----1----1----|
A|-------------------------------3----3----|-3----3----3----3------------------------|
E|-3----0----0----0----0----2--------------|-----------------------------------------|

G|-----------------------------------------|-----------------------------------------|
D|-1----1----------------------------------|-----------------------------------------|
A|-----------------------------------------|-----------------------------------------|
E|-----------3----0----0----0----0----0----|-3----0----0----0----0----0----3----0----|

G|-----------------------------------------|-----------------------------------------|
D|-----------------------------------------|-----------------------------------------|
A|-----------------------------------------|-----------------------------------------|
E|-0----0----0----0----5----5----5----5----|-3----2----3----0----0----0----0----0----|

G|-----------------------------------------|-----------------------------------------|
D|-----------------------------------------|---------------------1----1----1----1----|
A|-------------------------------3----3----|-3----3----3----3------------------------|
E|-3----0----0----0----0----2--------------|-----------------------------------------|

G|-----------------------------------------|-----------------------------------------|
D|-1----1----------------------------------|-----------------------------------------|
A|-----------------------------------------|-----------------------------------------|
E|-----------3----0----0----0----0----0----|-3----0----0----0----0----0----3----0----|

G|-----------------------------------------|-----------------------------------------|
D|-----------------------------------------|-----------------------------------------|
A|-----------------------------------------|-----------------------------------------|
E|-0----0----0----0----5----5----5----5----|-3----2----3----0----0----0----0----0----|

G|-----------------------------------------|-----------------------------------------|
D|-----------------------------------------|---------------------1----1----1----1----|
A|-------------------------------3----3----|-3----3----3----3------------------------|
E|-3----0----0----0----0----2--------------|-----------------------------------------|

G|-----------------------------------------|-----------------------------------------|
D|-1----1----------------------------------|-----------------------------------------|
A|-----------------------------------------|-----------------------------------------|
E|-----------3----0----0----0----0----0----|-3----0----0----0----0----0----3----0----|

G|-----------------------------------------|-----------------------------------------|
D|-----------------------------------------|-----------------------------------------|
A|-----------------------------------------|-----------------------------------------|
E|-0----0----0----0----5----5----5----5----|-3----2----3----0----0----0----0----0----|

G|---------------------------------|--------------------------------------|-------------------|
D|---------------------------7-----|-7----5----7---5----------------8-----|-------8-----------|
A|----------------------3----------|--------------------7-----9-----------|-9-----------------|
E|-3----0----0----0----------------|--------------------------------------|-----------9-------|

G|---------------|-------------------|-----------------------------------------|-----------------------------------------|
D|-------%-------|-%-----------------|-3--------------3--------------3---------|------3--------------3--------------3----|
A|-------%-------|-%------------4----|-----------4--------------4--------------|-4--------------4--------------4---------|
E|-9-------------|---------5---------|------5--------------5--------------5----|-----------5--------------5--------------|

G|-----------------------------------------|-----------------------------------------|
D|-----------3--------------3--------------|-1--------------1--------------1---------|
A|------4--------------4--------------2----|-----------2--------------2--------------|
E|-5--------------5--------------3---------|------3--------------3--------------3----|

G|-----------------------------------------|-----------------------------------------|
D|------1--------------1--------------1----|-----------1--------------1--------------|
A|-2--------------2--------------2---------|------2--------------2--------------4----|
E|-----------3--------------3--------------|-3--------------3--------------5---------|

G|-----------------------------------------|-----------------------------------------|
D|-3--------------3--------------3---------|------3--------------3--------------3----|
A|-----------4--------------4--------------|-4--------------4--------------4---------|
E|------5--------------5--------------5----|-----------5--------------5--------------|

G|-----------------------------------------|-----------------------------------------|
D|-----------3--------------3--------------|-0--------------0--------------0---------|
A|------4--------------4--------------1----|-----------1--------------1--------------|
E|-5--------------5--------------2---------|------2--------------2--------------2----|

G|-----------------------------------------|-----------------------------------------|
D|------0--------------0--------------0----|-----------0--------------0--------------|
A|-1--------------1--------------1---------|------1--------------1--------------4----|
E|-----------2--------------2--------------|-2--------------2--------------5---------|

G|-----------------------------------------|-----------------------------------------|
D|-3--------------3--------------3---------|------3--------------3--------------3----|
A|-----------4--------------4--------------|-4--------------4--------------4---------|
E|------5--------------5--------------5----|-----------5--------------5--------------|

G|-----------------------------------------|-----------------------------------------|
D|-----------3--------------3--------------|-1--------------1--------------1---------|
A|------4--------------4--------------2----|-----------2--------------2--------------|
E|-5--------------5--------------3---------|------3--------------3--------------3----|

G|-----------------------------------------|-----------------------------------------|
D|------1--------------1--------------1----|-----------1--------------1--------------|
A|-2--------------2--------------2---------|------2--------------2--------------4----|
E|-----------3--------------3--------------|-3--------------3--------------5---------|

G|-----------------------------------------|-----------------------------------------|
D|-3--------------3--------------3---------|------3--------------3--------------3----|
A|-----------4--------------4--------------|-4--------------4--------------4---------|
E|------5--------------5--------------5----|-----------5--------------5--------------|

G|-----------------------------------------|-----------------------------------------|
D|-----------3--------------3--------------|-0--------------0--------------0---------|
A|------4--------------4--------------1----|-----------1--------------1--------------|
E|-5--------------5--------------2---------|------2--------------2--------------2----|

G|-----------------------------------------|-----------------------------------------|
D|------0--------------0--------------0----|-----------0--------------0--------------|
A|-1--------------1--------------1---------|------1--------------1--------------4----|
E|-----------2--------------2--------------|-2--------------2--------------5---------|

G|-----------------------------------------|-----------------------------------------|
D|-3--------------3--------------3---------|------3--------------3--------------3----|
A|-----------4--------------4--------------|-4--------------4--------------4---------|
E|------5--------------5--------------5----|-----------5--------------5--------------|

G|-----------------------------------------|-----------------------------------------|
D|-----------3--------------3--------------|-1--------------1--------------1---------|
A|------4--------------4--------------2----|-----------2--------------2--------------|
E|-5--------------5--------------3---------|------3--------------3--------------3----|

G|-----------------------------------------|-----------------------------------------|
D|------1--------------1--------------1----|-----------1--------------1--------------|
A|-2--------------2--------------2---------|------2--------------2--------------4----|
E|-----------3--------------3--------------|-3--------------3--------------5---------|

G|-----------------------------------------|-----------------------------------------|
D|-3--------------3--------------3---------|------3--------------3--------------3----|
A|-----------4--------------4--------------|-4--------------4--------------4---------|
E|------5--------------5--------------5----|-----------5--------------5--------------|

G|-----------------------------------------|-----------------------------------------|
D|-----------3--------------3--------------|-0--------------0--------------0---------|
A|------4--------------4--------------1----|-----------1--------------1--------------|
E|-5--------------5--------------2---------|------2--------------2--------------2----|

G|-----------------------------------------|-----------------------------------------|
D|------0--------------0--------------0----|-----------0--------------0----3---------|
A|-1--------------1--------------1---------|------1--------------1--------------5----|
E|-----------2--------------2--------------|-2--------------2------------------------|

G|-----------------------------------------|-----------------------------------------|
D|------3--------------3--------------3----|-----------3--------------3--------------|
A|-----------5--------------5--------------|-5--------------5--------------5---------|
E|-5--------------5--------------5---------|------5--------------5--------------5----|

G|-----------------------------------------|-----------------------------------------|
D|-3--------------3--------------1---------|------1--------------1--------------1----|
A|------5--------------5--------------3----|-----------3--------------3--------------|
E|-----------5--------------5--------------|-3--------------3--------------3---------|

G|-----------------------------------------|-----------------------------------------|
D|-----------1--------------1--------------|-1--------------1--------------3---------|
A|-3--------------3--------------3---------|------3--------------3--------------5----|
E|------3--------------3--------------3----|-----------3--------------3--------------|

G|-----------------------------------------|-----------------------------------------|
D|------3--------------3--------------3----|-----------3--------------3--------------|
A|-----------5--------------5--------------|-5--------------5--------------5---------|
E|-5--------------5--------------5---------|------5--------------5--------------5----|

G|-----------------------------------------|-----------------------------------------|
D|-3--------------3------------------------|-----------------------------------------|
A|------5--------------5---------5----2----|------5----2---------5----2---------5----|
E|-----------5--------------5--------------|-2--------------2--------------2---------|

G|-----------------------------------------|-----------------------------------------|
D|-----------------------------------------|-------------------------------3----0----|
A|-2---------5----2---------5----2---------|-5----2---------5----2-------------------|
E|------2--------------2--------------2----|-----------2--------------2--------------|

G|-----------------------------------------|-----------------------------------------|
D|------3----0---------3----0---------3----|-0---------3----0---------3----0---------|
A|-0--------------0--------------0---------|------0--------------0--------------0----|
E|-----------------------------------------|-----------------------------------------|

G|-----------------------------------------|-----------------------------------------|
D|-3----0---------3----0---------1---------|------1--------------1--------------1----|
A|-----------0--------------0---------3----|-----------3--------------3--------------|
E|-----------------------------------------|-3--------------3--------------3---------|

G|-----------------------------------------|-----------------------------------------|
D|-----------1--------------1--------------|-1--------------1--------------3----0----|
A|-3--------------3--------------3---------|------3--------------3-------------------|
E|------3--------------3--------------3----|-----------3--------------3--------------|

G|-----------------------------------------|-----------------------------------------|
D|------3----0---------3----0---------3----|-0---------3----0---------3----0---------|
A|-0--------------0--------------0---------|------0--------------0--------------0----|
E|-----------------------------------------|-----------------------------------------|

G|-----------------------------------------|-----------------------------------------|
D|-3----0---------3----0---------0---------|------0--------------0--------------0----|
A|-----------0--------------0---------2----|-----------2--------------2--------------|
E|-----------------------------------------|-2--------------2--------------2---------|

G|----------------------|------------------11---11---|-11---11---11---11---11---11---12---12---|
D|------0---------------|-0------0-----%--------0----|-0---------0----0---------0---------0----|
A|-2--------2-----------|--------------%-------------|-----------------------------------------|
E|--------------2-------|----------------------------|-----------------------------------------|

G|-12---12---12---12---12---12---14---14---|-14---14---14---14---14---14---14---14---|
D|-0---------0----0---------0---------0----|-0---------0----0---------0----0---------|
A|-----------------------------------------|-----------------------------------------|
E|-----------------------------------------|-----------------------------------------|

G|-14---14---14---14---14---14---11---11---|-11---11---11---11---11---11---12---12---|
D|-0----0---------0---------0---------0----|-0---------0----0---------0---------0----|
A|-----------------------------------------|-----------------------------------------|
E|-----------------------------------------|-----------------------------------------|

G|-12---12---12---12---12---12---14---14---|-14---14---14---14---14---14---14---14---|
D|-0---------0----0---------0---------0----|-0---------0----0---------0----0---------|
A|-----------------------------------------|-----------------------------------------|
E|-----------------------------------------|-----------------------------------------|

G|-14---14---14---14---14---14---11---11---|-11---11---11---11---11---11---12---12---|
D|-0----0---------0---------0---------0----|-0---------0----0---------0---------0----|
A|-----------------------------------------|-----------------------------------------|
E|-----------------------------------------|-----------------------------------------|

G|-12---12---12---12---12---12---14---14---|-14---14---14---14---14---14---14---14---|
D|-0---------0----0---------0---------0----|-0---------0----0---------0----0---------|
A|-----------------------------------------|-----------------------------------------|
E|-----------------------------------------|-----------------------------------------|

G|-14---14---14---14---14---14---11---11---|-11---11---11---11---11---11---12---12---|
D|-0----0---------0---------0---------0----|-0---------0----0---------0---------0----|
A|-----------------------------------------|-----------------------------------------|
E|-----------------------------------------|-----------------------------------------|

G|-12---12---12---12---12---12---14---14---|-14---14---14---14---14---14---14---14---|
D|-0---------0----0---------0---------0----|-0---------0----0---------0----0---------|
A|-----------------------------------------|-----------------------------------------|
E|-----------------------------------------|-----------------------------------------|

G|-14---14---14---14---14---14---9----9----|-9----9----9----9----9----9----10---10---|
D|-0----0---------0---------0---------0----|-0---------0----0---------0---------0----|
A|-----------------------------------------|-----------------------------------------|
E|-----------------------------------------|-----------------------------------------|

G|-10---10---10---10---10---10---9----9----|-9----9----9----9----9----9----10---10---|
D|-0---------0----0---------0---------0----|-0---------0----0---------0---------0----|
A|-----------------------------------------|-----------------------------------------|
E|-----------------------------------------|-----------------------------------------|

G|-10---10---10---10---10---10---7----7----|-7----7----7----7----7----7----7----7----|
D|-0---------0----0---------0---------0----|-0---------0----0---------0---------0----|
A|-----------------------------------------|-----------------------------------------|
E|-----------------------------------------|-----------------------------------------|

G|-7----7----7----7----7----7----7----7----|-7----7----7----7----7----7----7----7----|
D|-0---------0----0---------0---------0----|-0---------0----0---------0---------0----|
A|-----------------------------------------|-----------------------------------------|
E|-----------------------------------------|-----------------------------------------|

G|-7----7----7----7----7----7----11---11---|-11---11---11---11---11---11---12---12---|
D|-0---------0----0---------0---------0----|-0---------0----0---------0---------0----|
A|-----------------------------------------|-----------------------------------------|
E|-----------------------------------------|-----------------------------------------|

G|-12---12---12---12---12---12---14---14---|-14---14---14---14---14---14---14---14---|
D|-0---------0----0---------0---------0----|-0---------0----0---------0----0---------|
A|-----------------------------------------|-----------------------------------------|
E|-----------------------------------------|-----------------------------------------|

G|-14---14---14---14---14---14---11---11---|-11---11---11---11---11---11---12---12---|
D|-0----0---------0---------0---------0----|-0---------0----0---------0---------0----|
A|-----------------------------------------|-----------------------------------------|
E|-----------------------------------------|-----------------------------------------|

G|-12---12---12---12---12---12---14---14---|-14---14---14---14---14---14---14---14---|
D|-0---------0----0---------0---------0----|-0---------0----0---------0----0---------|
A|-----------------------------------------|-----------------------------------------|
E|-----------------------------------------|-----------------------------------------|

G|-14---14---14---14---14---14---9----9----|-9----9----9----9----9----9----10---10---|
D|-0----0---------0---------0---------0----|-0---------0----0---------0---------0----|
A|-----------------------------------------|-----------------------------------------|
E|-----------------------------------------|-----------------------------------------|

G|-10---10---10---10---10---10---9----9----|-9----9----9----9----9----9----10---10---|
D|-0---------0----0---------0---------0----|-0---------0----0---------0---------0----|
A|-----------------------------------------|-----------------------------------------|
E|-----------------------------------------|-----------------------------------------|

G|-10---10---10---10---10---10---7----7----|-7----7----7----7----7----7----7----7----|
D|-0---------0----0---------0---------0----|-0---------0----0---------0---------0----|
A|-----------------------------------------|-----------------------------------------|
E|-----------------------------------------|-----------------------------------------|

G|-7----7----7----7----7----7----7----7----|-7----7----7----7----7----7----7----7----|
D|-0---------0----0---------0---------0----|-0---------0----0---------0---------0----|
A|-----------------------------------------|-----------------------------------------|
E|-----------------------------------------|-----------------------------------------|

G|-7----7----7----7----7----7----5----5----|-5----5----5----5----5----5----3----3----|
D|-0---------0----0---------0---------0----|-0---------0----0---------0---------0----|
A|-----------------------------------------|-----------------------------------------|
E|-----------------------------------------|-----------------------------------------|

G|-3----3----3----3----5----5----7----7----|-7----7----7----7----7----7----7----7----|
D|-0---------0----0---------0---------0----|-0---------0----0---------0----0---------|
A|-----------------------------------------|-----------------------------------------|
E|-----------------------------------------|-----------------------------------------|

G|-7----7----7----7----7----7----5----5----|-5----5----5----5----5----5----3----3----|
D|-0----0---------0---------0---------0----|-0---------0----0---------0---------0----|
A|-----------------------------------------|-----------------------------------------|
E|-----------------------------------------|-----------------------------------------|

G|-3----3----3----3----5----5----7----7----|-7----7----7----7----7----7----7----7----|
D|-0---------0----0---------0---------0----|-0---------0----0---------0----0---------|
A|-----------------------------------------|-----------------------------------------|
E|-----------------------------------------|-----------------------------------------|

G|-7----7----7----7----7----7----5----5----|-5----5----5----5----5----5----3----3----|
D|-0----0---------0---------0---------0----|-0---------0----0---------0---------0----|
A|-----------------------------------------|-----------------------------------------|
E|-----------------------------------------|-----------------------------------------|

G|-3----3----3----3----5----5----7----7----|-7----7----7----7----7----7----7----7----|
D|-0---------0----0---------0---------0----|-0---------0----0---------0----0---------|
A|-----------------------------------------|-----------------------------------------|
E|-----------------------------------------|-----------------------------------------|

G|-7----7----7----7----7----7----5----5----|-5----5----5----5----5----5----3----3----|
D|-0----0---------0---------0---------0----|-0---------0----0---------0---------0----|
A|-----------------------------------------|-----------------------------------------|
E|-----------------------------------------|-----------------------------------------|

G|-3----3----3----3----5----5----------|---------|---------|---------|---------|----------------------------|
D|-0---------0----0---------0----------|---------|---------|---------|---------|--------------%-------------|
A|-------------------------------0-----|-0-------|-0-------|-0-------|-0-------|-0------0-----%---0----0----|
E|-------------------------------------|---------|---------|---------|---------|----------------------------|

G|-----------------------------------------|-----------------------------------------|
D|-----------------------------------------|-----------------------------------------|
A|-0----0----0----0----0----0----0----0----|-0----0----0----0----0----0----0----0----|
E|-----------------------------------------|-----------------------------------------|

G|-----------------------------------------|-----------------------------------------|
D|-----------------------------------------|-----------------------------------------|
A|-0----0----0----0----0----0----0----0----|-0----0----0----0----0----0----0----0----|
E|-----------------------------------------|-----------------------------------------|

G|-----------------------------------------|-----------------------------------------|
D|-----------------------------------------|-----------------------------------------|
A|-0----0----0----0----0----0----0----0----|-0----0----0----0----0----0----0----0----|
E|-----------------------------------------|-----------------------------------------|

G|-----------------------------------------|-----------------------------------------|
D|-----------------------------------------|-----------------------------------------|
A|-0----0----0----0----0----0----0----0----|-0----0----0----0----0----0----0----0----|
E|-----------------------------------------|-----------------------------------------|

G|-----------------------------------------|-----------------------------------------|
D|-----------------------------------------|-----------------------------------------|
A|-0----0----0----0----0----0----0----0----|-0----0----0----0----0----0----0----0----|
E|-----------------------------------------|-----------------------------------------|

G|-----------------------------------------|-----------------------------------------|
D|-----------------------------------------|-----------------------------------------|
A|-0----0----0----0----0----0----0----0----|-3----3----3----3----2----0--------------|
E|-----------------------------------------|-------------------------------1----1----|

G|-----------------------------------------|-----------------------------------------|
D|-----------------------------------------|-----------------------------------------|
A|-----------------------------------------|-----------------------------------------|
E|-1----1----1----1----1----1----1----1----|-1----1----3----3----3----3----3----3----|

G|-----------------------------------------|-----------------------------------------|
D|-----------------------------------------|-----------------------------------------|
A|-------------------------------0----0----|-0----0----0----0----0----0----0----0----|
E|-5----5----5----3----3----3--------------|-----------------------------------------|

G|-----------------------------------------|-----------------------------------------|
D|-----------------------------------------|-----------------------------------------|
A|-0----0----0----0----0----0----0----0----|-3----3----3----3----2----0--------------|
E|-----------------------------------------|-------------------------------1----1----|

G|-----------------------------------------|-----------------------------------------|
D|-----------------------------------------|-----------------------------------------|
A|-----------------------------------------|-----------------------------------------|
E|-1----1----1----1----1----1----1----1----|-1----1----3----3----3----3----3----3----|

G|-----------------------------------------|-----------------------------------------|
D|-----------------------------------------|-----------------------------------------|
A|-------------------------------0----0----|-0----0----0----0----0----0----0----0----|
E|-5----5----5----3----3----3--------------|-----------------------------------------|

G|-----------------------------------------|-----------------------------------------|
D|-----------------------------------------|-----------------------------------------|
A|-0----0----0----0----0----0----0----0----|-3----3----3----3----2----0--------------|
E|-----------------------------------------|-------------------------------1----1----|

G|-----------------------------------------|-----------------------------------------|
D|-----------------------------------------|-----------------------------------------|
A|-----------------------------------------|-----------------------------------------|
E|-1----1----1----1----1----1----1----1----|-1----1----3----3----3----3----3----3----|

G|-----------------------------------------|-----------------------------------------|
D|-----------------------------------------|-----------------------------------------|
A|-------------------------------0----0----|-0----0----0----0----0----0----0----0----|
E|-5----5----5----3----3----3--------------|-----------------------------------------|

G|-----------------------------------------|-----------------------------------------|
D|-----------------------------------------|-----------------------------------------|
A|-0----0----0----0----0----0----0----0----|-3----3----3----3----2----0--------------|
E|-----------------------------------------|-------------------------------1----1----|

G|-----------------------------------------|-----------------------------------------|
D|-----------------------------------------|-----------------------------------------|
A|-----------------------------------------|-----------------------------------------|
E|-1----1----1----1----1----1----1----1----|-1----1----3----3----3----3----3----3----|

G|-----------------------------------------|-----------------------------------------|
D|-----------------------------------------|-----------------------------------------|
A|-------------------------------0----0----|-0----0----0----0----0----0----0----0----|
E|-5----5----5----3----3----3--------------|-----------------------------------------|

G|-----------------------------------------|-----------------------------------------|
D|-----------------------------------------|-----------------------------------------|
A|-0----0----0----0----0----0----0----0----|-3----3----3----3----2----0--------------|
E|-----------------------------------------|-------------------------------1----1----|

G|-----------------------------------------|-----------------------------------------|
D|-----------------------------------------|-----------------------------------------|
A|-----------------------------------------|-----------------------------------------|
E|-1----1----1----1----1----1----1----1----|-1----1----3----3----3----3----3----3----|

G|-----------------------------------------|-----------------------------------------|
D|-----------------------------------------|-----------------------------------------|
A|-------------------------------0----0----|-0----0----0----0----0----0----0----0----|
E|-5----5----5----3----3----3--------------|-----------------------------------------|

G|-----------------------------------------|-----------------------------------------|
D|-----------------------------------------|-----------------------------------------|
A|-0----0----0----0----0----0----0----0----|-3----3----3----3----2----0--------------|
E|-----------------------------------------|-------------------------------1----1----|

G|-----------------------------------------|-----------------------------------------|
D|-----------------------------------------|-----------------------------------------|
A|-----------------------------------------|-----------------------------------------|
E|-1----1----1----1----1----1----1----1----|-1----1----3----3----3----3----3----3----|

G|-----------------------------------------|-----------------------------------------|
D|-----------------------------------------|-----------------------------------------|
A|-------------------------------7----7----|-7----7----7----7----7----7----7----7----|
E|-5----5----5----3----3----3--------------|-----------------------------------------|

G|-----------------------------------------|-----------------------------------------|
D|-----------------------------------------|-----------------------------------------|
A|-7----7----7----7----7----7----7----7----|-7----7----7----7----7----7--------------|
E|-----------------------------------------|-------------------------------8----8----|

G|-----------------------------------------|-----------------------------------------|
D|-----------------------------------------|-----------------------------------------|
A|-----------------------------------------|-----------------------------------------|
E|-8----8----8----8----8----8----8----8----|-8----8----10---10---10---10---10---10---|

G|-----------------------------------------|-----------------------------------------|
D|-----------------------------------------|-----------------------------------------|
A|-7----7----7-------------------7----7----|-7----7----7----7----7----7----7----7----|
E|----------------10---10---10-------------|-----------------------------------------|

G|-----------------------------------------|-----------------------------------------|
D|-----------------------------------------|-----------------------------------------|
A|-7----7----7----7----7----7----7----7----|-7----7----7----7----7----7--------------|
E|-----------------------------------------|-------------------------------8----8----|

G|-----------------------------------------|-----------------------------------------|
D|-----------------------------------------|-----------------------------------------|
A|-----------------------------------------|-----------5----5----5----5----5----5----|
E|-8----8----8----8----8----8----8----8----|-8----8----------------------------------|

G|-----------------------------------------|-----------------------------------------|
D|-----------------------------------------|-----------------------------------------|
A|-7----7----7-------------------7----7----|-7----7----7----7----7----7----7----7----|
E|----------------10---10---10-------------|-----------------------------------------|

G|-----------------------------------------|-----------------------------------------|
D|-----------------------------------------|-----------------------------------------|
A|-7----7----7----7----7----7----7----7----|-7----7----7----7----7----7--------------|
E|-----------------------------------------|-------------------------------8----8----|

G|-----------------------------------------|-----------------------------------------|
D|-----------------------------------------|-----------------------------------------|
A|-----------------------------------------|-----------------------------------------|
E|-8----8----8----8----8----8----8----8----|-8----8----10---10---10---10---10---10---|

G|-----------------------------------------|-----------------------------------------|
D|-----------------------------------------|-----------------------------------------|
A|-7----7----7-------------------7----7----|-7----7----7----7----7----7----7----7----|
E|----------------10---10---10-------------|-----------------------------------------|

G|-----------------------------------------|-----------------------------------------|
D|-----------------------------------------|-----------------------------------------|
A|-7----7----7----7----7----7----7----7----|-7----7----7----7----7----7--------------|
E|-----------------------------------------|-------------------------------8----8----|

G|-----------------------------------------|-----------------------------------------|
D|-----------------------------------------|-----------------------------------------|
A|-----------------------------------------|-----------------------------------------|
E|-8----8----8----8----8----8----8----8----|-8----8----10---10---10---10---10---10---|

G|-----------------------------------------|-----------------------------------------|
D|-----------------------------------------|-----------------------------------------|
A|-7----7----7-------------------7----7----|-7----7----7----7----7----7----7----7----|
E|----------------10---10---10-------------|-----------------------------------------|

G|-----------------------------------------|-----------------------------------------|
D|-----------------------------------------|-----------------------------------------|
A|-7----7----7----7----7----7----7----7----|-7----7----7----7----7----7--------------|
E|-----------------------------------------|-------------------------------8----8----|

G|-----------------------------------------|-----------------------------------------|
D|-----------------------------------------|-----------------------------------------|
A|-----------------------------------------|-----------------------------------------|
E|-8----8----8----8----8----8----8----8----|-8----8----10---10---10---10---10---10---|

G|-----------------------------------------|-----------------------------------------|
D|-----------------------------------------|-----------------------------------------|
A|-7----7----7-------------------7----7----|-7----7----7----7----7----7----7----7----|
E|----------------10---10---10-------------|-----------------------------------------|

G|-----------------------------------------|-----------------------------------------|
D|-----------------------------------------|-----------------------------------------|
A|-7----7----7----7----7----7----7----7----|-7----7----7----7----7----7--------------|
E|-----------------------------------------|-------------------------------8----8----|

G|-----------------------------------------|-----------------------------------------|
D|-----------------------------------------|-----------------------------------------|
A|-----------------------------------------|-----------------------------------------|
E|-8----8----8----8----8----8----8----8----|-8----8----10---10---10---10---10---10---|

G|-----------------------------------------|-----------------------------------------|
D|-----------------------------------------|-----------------------------------------|
A|-7----7----7-------------------7----7----|-7----7----7----7----7----7----7----7----|
E|----------------10---10---10-------------|-----------------------------------------|

G|-----------------------------------------|-----------------------------------------|
D|-----------------------------------------|-----------------------------------------|
A|-7----7----7----7----7----7----7----7----|-7----7----7----7----7----7--------------|
E|-----------------------------------------|-------------------------------8----8----|

G|-----------------------------------------|-----------------------------------------|
D|-----------------------------------------|-----------------------------------------|
A|-----------------------------------------|-----------------------------------------|
E|-8----8----8----8----8----8----8----8----|-8----8----10---10---10---10---10---10---|

G|-----------------------------------------|-----------------------------------------|
D|-----------------------------------------|-----------------------------------------|
A|-7----7----7-------------------7----7----|-7----7----7----7----7----7----7----7----|
E|----------------10---10---10-------------|-----------------------------------------|

G|-----------------------------------------|-----------------------------------------|
D|-----------------------------------------|-----------------------------------------|
A|-7----7----7----7----7----7----7----7----|-7----7----7----7----7----7--------------|
E|-----------------------------------------|-------------------------------8----8----|

G|-----------------------------------------|-----------------------------------------|
D|-----------------------------------------|-----------------------------------------|
A|-----------------------------------------|-----------------------------------------|
E|-8----8----8----8----8----8----8----8----|-8----8----10---10---10---10---10---10---|

G|-----------------------------------------|-----------------------------------------|
D|-----------------------------------------|-----------------------------------------|
A|-7----7----7-------------------7----7----|-7----7----7----7----7----7----7----7----|
E|----------------10---10---10-------------|-----------------------------------------|

G|-----------------------------------------|-----------------------------------------|
D|-----------------------------------------|-----------------------------------------|
A|-7----7----7----7----7----7----7----7----|-7----7----7----7----7----7--------------|
E|-----------------------------------------|-------------------------------8----8----|

G|-----------------------------------------|-----------------------------------------|
D|-----------------------------------------|-----------------------------------------|
A|-----------------------------------------|-----------------------------------------|
E|-8----8----8----8----8----8----8----8----|-8----8----10---10---10---10---10---10---|

G|-----------------------------------------|-----------------------------------------|
D|-----------------------------------------|-----------------------------------------|
A|-7----7----7-------------------7----7----|-7----7----7----7----7----7----7----7----|
E|----------------10---10---10-------------|-----------------------------------------|

G|-----------------------------------------|-----------------------------------------|
D|-----------------------------------------|-----------------------------------------|
A|-7----7----7----7----7----7----7----7----|-7----7----7----7----7----7--------------|
E|-----------------------------------------|-------------------------------8----8----|

G|-----------------------------------------|-----------------------------------------|
D|-----------------------------------------|-----------------------------------------|
A|-----------------------------------------|-----------------------------------------|
E|-8----8----8----8----8----8----8----8----|-8----8----10---10---10---10---10---10---|

G|-----------------------------------------|-----------------------------------------|
D|-----------------------------------------|-----------------------------------------|
A|-7----7----7-----------------------------|-----------------------------------------|
E|----------------10---10---10---7----7----|-7----5----5----5----4----4----4----5----|

G|-----------------------------------------|-----------------------------------------|
D|--------------------------%--------------|-----------------------------------------|
A|--------------------------%--------------|-----------------------------------------|
E|-5----5----5----4----1---------7----7----|-7----5----5----5----4----4----4----5----|

G|-----------------------------------------|-----------------------------------------|
D|--------------------------%--------------|-----------------------------------------|
A|--------------------------%--------------|-----------------------------------------|
E|-5----5----5----4----1---------0----0----|-0----0----0----0----0----0----0----0----|

G|-----------------------------------------|-----------------------------------------|
D|-----------------------------------------|-----------------------------------------|
A|-----------------------------------------|-----------------------------------------|
E|-0----0----0----0----0----0----0----0----|-0----0----0----0----0----0----7----7----|

G|-----------------------------------------|-----------------------------------------|
D|-----------------------------------------|--------------------------%--------------|
A|-----------------------------------------|--------------------------%--------------|
E|-7----5----5----5----4----4----4----5----|-5----5----5----4----1---------7----7----|

G|-----------------------------------------|-----------------------------------------|
D|-----------------------------------------|--------------------------%--------------|
A|-----------------------------------------|--------------------------%--------------|
E|-7----5----5----5----4----4----4----5----|-5----5----5----4----1---------0----0----|

G|-----------------------------------------|-----------------------------------------|
D|-----------------------------------------|-----------------------------------------|
A|-----------------------------------------|-----------------------------------------|
E|-0----0----0----0----0----0----0----0----|-0----0----0----0----0----0----0----0----|

G|-----------------------------------------|-----------------------------------------|
D|-----------------------------------------|-----------------------------------------|
A|-----------------------------------------|-----------------------------------------|
E|-0----0----0----0----0----0----7----7----|-7----5----5----5----4----4----4----5----|

G|-----------------------------------------|-----------------------------------------|
D|--------------------------%--------------|-----------------------------------------|
A|--------------------------%--------------|-----------------------------------------|
E|-5----5----5----4----1---------7----7----|-7----5----5----5----4----4----4----5----|

G|--------------------------------------------|-----------------------------------------------------|
D|--------------------------%-----------------|-----------------------------------------------------|
A|--------------------------%----7----7---7---|-7----7---7---7----7---7---7----7---7---7----7---7---|
E|-5----5----5----4----1----------------------|-----------------------------------------------------|

G|--------------------------------------------------|-----------------------------------------------------|
D|--------------------------------------------------|-----------------------------------------------------|
A|-7----7---7----------------5----5---7-----7---7---|-7----7---7---7----7---7---7----7---7---7----7---7---|
E|--------------8----8---8--------------------------|-----------------------------------------------------|

G|-----------------------------------------------------|-----------------------------------------------------|
D|-----------------------------------------------------|-----------------------------------------------------|
A|-7----7---7----------------5----5---5---7----7---7---|-7----7---7---7----7---7---7----7---7---7----7---7---|
E|--------------8----8---8-----------------------------|-----------------------------------------------------|

G|--------------------------------------------------------|-----------------------------------------------------|
D|--------------------------------------------------------|-----------------------------------------------------|
A|-7----7---7---7----7---7---5---7---9-------7----7---7---|-7----7---7---7----7---7---7----7---7----------------|
E|---------------------------------------10---------------|----------------------------------------8----8---8---|

G|--------------------------------------------------------|-----------------------------------------------------|
D|--------------------------------------------------------|-----------------------------------------------------|
A|---------------------------5---7---9-------7----7---7---|-7----7---7---7----7---7---7----7---7---7----7---7---|
E|-8----8---8---8----8---8---------------10---------------|-----------------------------------------------------|

G|-----------------------------------------------------|-----------------------------------------------------|
D|-----------------------------------------------------|-----------------------------------------------------|
A|-7----7---7---7----7---7---7----7---7----------------|----------------------------------------5----5---5---|
E|----------------------------------------8----8---8---|-8----8---8---8----8---8---8----8---8----------------|

G|--------------------------------------------------------|-----------------------------------------------------|
D|--------------------------------------------------------|-----------------------------------------------------|
A|-5----5---5---5----5---5---5---7---9-------7----7---7---|-7----7---7---7----7---7---7----7---7---7----7---7---|
E|---------------------------------------10---------------|-----------------------------------------------------|

G|-----------------------------------------------------|-----------------------------------------------------|
D|-----------------------------------------------------|-----------------------------------------------------|
A|-7----7---7---7----7---7---7----7---7---7----7---7---|-7----7---7---7----7---7---7----7---7---7----7---7---|
E|-----------------------------------------------------|-----------------------------------------------------|

G|--------------------------------------------------------|-----------------------------------------------------|
D|--------------------------------------------------------|-----------------------------------------------------|
A|-7----7---7---7----7---7---5---7---9-------7----7---7---|-7----7---7---7----7---7---7----7---7----------------|
E|---------------------------------------10---------------|----------------------------------------8----8---8---|

G|--------------------------------------------------------|-----------------------------------------------------|
D|--------------------------------------------------------|-----------------------------------------------------|
A|---------------------------5---7---9-------7----7---7---|-7----7---7---7----7---7---7----7---7---7----7---7---|
E|-8----8---8---8----8---8---------------10---------------|-----------------------------------------------------|

G|-----------------------------------------------------|-----------------------------------------------------|
D|-----------------------------------------------------|-----------------------------------------------------|
A|-7----7---7---7----7---7---7----7---7----------------|----------------------------------------5----5---5---|
E|----------------------------------------8----8---8---|-8----8---8---8----8---8---8----8---8----------------|

G|--------------------------------------------------------|-----------------------------------------------------|
D|--------------------------------------------------------|-----------------------------------------------------|
A|-5----5---5---5----5---5---5---7---9-------7----7---7---|-7----7---7---7----7---7---7----7---7---7----7---7---|
E|---------------------------------------10---------------|-----------------------------------------------------|

G|--------------------------------------------------------|---------------------------------4-----4---------------------|
D|----------------------------------------5---4---2---4---|-5--%----5---5---5---4---2---4------------%--5---4---2---4---|
A|-7----7---7---7----7---7---7----7---7-------------------|----%-------------------------------------%------------------|
E|--------------------------------------------------------|-------------------------------------------------------------|

G|-------------------------------------------------------------|---------------------------------4-----4---------------------|
D|-5--%----5---5---5---4---2---4---0-----0--%--5---4---2---4---|-5--%----5---5---5---4---2---4------------%--5---4---2---4---|
A|----%-------------------------------------%------------------|----%-------------------------------------%------------------|
E|-------------------------------------------------------------|-------------------------------------------------------------|

G|-----------------------------------------------------------|-----------------------------------------------------|
D|-5--%----5---5---5--%----5--%------------------------------|-----------------------------------------------------|
A|----%---------------%-------%----5---7---9---7-----7---7---|-7----7---7---7----7---7---7----7---7---7----7---7---|
E|-----------------------------------------------------------|-----------------------------------------------------|

G|--------------------------------------------------------|-------------------------------------------------------------|
D|----------------------------------------5---4---2---4---|-5--%----5---5---5---4---2---4---5-----5--%--7---5---4---5---|
A|-7----7---7---7----7---7---7----5---5-------------------|----%-------------------------------------%------------------|
E|--------------------------------------------------------|-------------------------------------------------------------|

G|-------------------------------------------------------------|-------------------------------------------------------------|
D|-7--%----7---7---7---5---4---5---7-----7--%--5---4---2---4---|-5--%----5---5---5---4---2---4---5-----5--%--7---5---4---5---|
A|----%-------------------------------------%------------------|----%-------------------------------------%------------------|
E|-------------------------------------------------------------|-------------------------------------------------------------|

G|-----------------------------------------------------------|-----------------------------------------------------|
D|-7--%----7---7---7--%----7--%------------------------------|-----------------------------------------------------|
A|----%---------------%-------%----5---7---9---7-----7---7---|-7----7---7---7----7---7---7----7---7---7----7---7---|
E|-----------------------------------------------------------|-----------------------------------------------------|

G|-----------------------------------------------------|-----------------------------------------------------|
D|-----------------------------------------------------|-----------------------------------------------------|
A|-7----7---7---7----7---7---7----5---5---7----7---7---|-7----7---7---7----7---7---7----7---7---7----7---7---|
E|-----------------------------------------------------|-----------------------------------------------------|

G|--------------------------------------------------------|-----------------------------------------------------|
D|--------------------------------------------------------|-----------------------------------------------------|
A|-7----7---7---7----7---7---5---7---9---5---7----7---7---|-7----7---7---7----7---7---7----7---7---7----7---7---|
E|--------------------------------------------------------|-----------------------------------------------------|

G|--------------------------------------------------------|-----------------------------------------------------|
D|--------------------------------------------------------|-----------------------------------------------------|
A|-7----7---7---7----7---7---5---7---9---5---7----7---7---|-7----7---7---7----7---7---7----7---7---7----7---7---|
E|--------------------------------------------------------|-----------------------------------------------------|

G|--------------------------------------------------------|-----------------------------------------------------|
D|--------------------------------------------------------|-----------------------------------------------------|
A|-7----7---7---7----7---7---5---7---9---5---7----7---7---|-7----7---7---7----7---7---7----7---7---7----7---7---|
E|--------------------------------------------------------|-----------------------------------------------------|

G|-----------------------------------------------------|-----------------------------------------------------|
D|-----------------------------------------------------|-----------------------------------------------------|
A|-7----7---7---7----7---7---7----7---7----------------|-----------------------------------------------------|
E|----------------------------------------8----8---8---|-8----8---8---8----8---8---8----8---8---10---10--10--|

G|--------------------------------------------------------|----------------------------------------------------|
D|-------------------------------------------%------------|--------------------%-------------------------------|
A|----------------------------------------7--%----7---7---|-10--9---7-------7--%----7---7---5----7-----7---7---|
E|-10---10--10--10---10--10--10---10--10------------------|-------------10-------------------------------------|

G|--------------------------------------------------------|-----------------------------------------------------|
D|--------------------------------------------------------|-----------------------------------------------------|
A|-10--9---7-------7----7---7---7----7---7----------------|-----------------------------------------------------|
E|-------------10----------------------------8----8---8---|-8----8---8---8----8---8---8----8---8---10---10--10--|

G|--------------------------------------------------------|----------------------------------------------------|
D|-------------------------------------------%------------|--------------------%-------------------------------|
A|----------------------------------------7--%----7---7---|-10--9---7-------7--%----7---7---5----7-----7---7---|
E|-10---10--10--10---10--10--10---10--10------------------|-------------10-------------------------------------|

G|-----------------------------------------------------|-----------------------------------------------------|
D|-----------------------------------------------------|-----------------------------------------------------|
A|-10--9---7-------7----7---7---5----5----7----7---7---|-7----7---7---7----7---7---7----7---7---7----7---7---|
E|-------------10--------------------------------------|-----------------------------------------------------|

G|--------------------------------------------------------|-----------------------------------------------------|
D|--------------------------------------------------------|-----------------------------------------------------|
A|-7----7---7---7----7---7---5---7---9-------7----7---7---|-7----7---7---7----7---7---7----7---7---7----7---7---|
E|---------------------------------------10---------------|-----------------------------------------------------|

G|--------------------------------------------------------|-----------------------------------------------------|
D|--------------------------------------------------------|-----------------------------------------------------|
A|-7----7---7---7----7---7---5---7---9-------7----7---7---|-7----7---7---7----7---7---7----7---7---7----7---7---|
E|---------------------------------------10---------------|-----------------------------------------------------|

G|--------------------------------------------------------|-----------------------------------------------------|
D|--------------------------------------------------------|-----------------------------------------------------|
A|-7----7---7---7----7---7---5---7---9-------7----7---7---|-7----7---7---7----7---7---7----7---7---7----7---7---|
E|---------------------------------------10---------------|-----------------------------------------------------|

G|--------------------------------------------------------|-----------------------------------------------------|
D|--------------------------------------------------------|-----------------------------------------------------|
A|-7----7---7---7----7---7---5---7---9--------------------|----------------------------------------5----5---5---|
E|---------------------------------------10--8----8---8---|-8----8---8---8----8---8---8----8---8----------------|

G|--------------------------------------------------------|----------------------------------------------------|
D|-------------------------------------------%------------|--------------------%-------------------------------|
A|-5----5---5---5----5---5---5----5---5---7--%----7---7---|-10--9---7-------7--%----7---7---5----7-----7---7---|
E|--------------------------------------------------------|-------------10-------------------------------------|

G|-----------------------------------------------------|-----------------------------------------------------|
D|-----------------------------------------------------|-----------------------------------------------------|
A|-10--9---7-------7----7---7--------------------------|-----------------------------------------------------|
E|-------------10---------------10---10---8----8---8---|-8----8---8---8----8---8---8----8---8---10---10--10--|

G|----------------------------------------------|---------|
D|----------------------------------------------|-%-------|
A|----------------------------------------------|-%-------|
E|-10---10--10--10---10--10--10---10--10--0-----|---------|
Iron Maiden - Rime of the Ancient Mariner (2)
Iron Maiden - Rime of the Ancient Mariner (2).gp3