Iron Maiden - Road To Hell

Iron Maiden



Title: Road To Hell
Album: 
Artist: 
Author: Bruce Dickinson

Track 1: Guitar 1
E|---------|---------|----------------------------|----------------------------|---------|
B|---------|---------|----------------------------|----------------------------|---------|
G|-%-------|-%-------|----------------------------|----------------------------|---------|
D|-%-------|-%-------|------------------7----9----|-9------10---9----7---------|---------|
A|---------|---------|-10-----10---10-------------|-----------------------9----|-9-------|
E|---------|---------|----------------------------|----------------------------|---------|

E|-----------------------------------------|----------------------------|----------------------------|
B|-----------------------------------------|----------------------------|----------------------------|
G|-9----7---------9----7-------------------|----------------------------|----------------------------|
D|-----------10-------------10---9---------|------------------7----9----|-9------10---9----7---------|
A|------------------------------------10---|-10-----10---10-------------|-----------------------9----|
E|-----------------------------------------|----------------------------|----------------------------|

E|---------|-----------------------------------------|----------------------------|
B|---------|-----------------------------------------|----------------------------|
G|---------|-----------------------------------------|----------------------------|
D|---------|-10---9----7----10---9----7--------------|------------------7----9----|
A|-9-------|-------------------------------9----10---|-10-----10---10-------------|
E|---------|-----------------------------------------|----------------------------|

E|----------------------------|---------|-----------------------------------------|
B|----------------------------|---------|-----------------------------------------|
G|----------------------------|---------|-9----7---------9----7-------------------|
D|-9------10---9----7---------|---------|-----------10-------------10---9---------|
A|-----------------------9----|-9-------|------------------------------------10---|
E|----------------------------|---------|-----------------------------------------|

E|----------------------------|----------------------------|---------|-----------------------------------------|
B|----------------------------|----------------------------|---------|-----------------------------------------|
G|----------------------------|----------------------------|---------|-----------------------------------------|
D|------------------7----9----|-9------10---9----7---------|---------|-10---9----7----10---9----7---------7----|
A|-10-----10---10-------------|-----------------------9----|-9-------|-------------------------------9---------|
E|----------------------------|----------------------------|---------|-----------------------------------------|

E|-----------------------------------------|-----------------------------------------|
B|-----------------------------------------|-----------------------------------------|
G|-----------------------------------------|-----------------------------------------|
D|-----------------------------------------|-----------------------------------------|
A|-2--------------2--------------2---------|------2--------------2---------0---------|
E|-0----0----0----0----0----0----0----0----|-0----0----0----0----0----0----0----0----|

E|-----------------------------------------|-----------------------------------------|
B|-----------------------------------------|-----------------------------------------|
G|-----------------------------------------|-----------------------------------------|
D|-----------------------------------------|-----------------------------------------|
A|-2--------------2--------------2---------|------2--------------2---------0---------|
E|-0----0----0----0----0----0----0----0----|-0----0----0----0----0----0----0----0----|

E|-----------------------------------------|-----------------------------------------|
B|-----------------------------------------|-----------------------------------------|
G|-----------------------------------------|-----------------------------------------|
D|-----------------------------------------|-----------------------------------------|
A|-2--------------2--------------2---------|------2--------------2---------0---------|
E|-0----0----0----0----0----0----0----0----|-0----0----0----0----0----0----0----0----|

E|-----------------------------------------|-----------------------------------------|
B|-----------------------------------------|-----------------------------------------|
G|-----------------------------------------|-----------------------------------------|
D|-----------------------------------------|-----------------------------------------|
A|-2--------------2--------------2---------|------2--------------5-------------------|
E|-0----0----0----0----0----0----0----0----|-0----0----0----0---------7----6----5----|

E|-----------------------------------------|-----------------------------------------|
B|-----------------------------------------|-----------------------------------------|
G|-----------------------------------------|-----------------------------------------|
D|-----------------------------------------|-----------------------------------------|
A|-2--------------2--------------2---------|------2--------------2---------0---------|
E|-0----0----0----0----0----0----0----0----|-0----0----0----0----0----0----0----0----|

E|-----------------------------------------|-----------------------------------------|
B|-----------------------------------------|-----------------------------------------|
G|-----------------------------------------|-----------------------------------------|
D|-----------------------------------------|-----------------------------------------|
A|-2--------------2--------------2---------|------2--------------2---------0---------|
E|-0----0----0----0----0----0----0----0----|-0----0----0----0----0----0----0----0----|

E|-----------------------------------------|-----------------------------------------|
B|-----------------------------------------|-----------------------------------------|
G|-----------------------------------------|-----------------------------------------|
D|-----------------------------------------|-----------------------------------------|
A|-2--------------2--------------2---------|------2--------------2---------0---------|
E|-0----0----0----0----0----0----0----0----|-0----0----0----0----0----0----0----0----|

E|-----------------------------------------|---------------------|---------|---------|
B|-----------------------------------------|---------------------|---------|---------|
G|-----------------------------------------|-9------7------5-----|-4-------|-4-------|
D|-----------------------------------------|-9------7------5-----|-4-------|-4-------|
A|-2--------------2--------------2---------|-7------5------3-----|-2-------|-2-------|
E|-0----0----0----0----0----0----0----0----|---------------------|---------|---------|

E|---------|---------|---------|---------|-----------------------------|---------|----------------------------|
B|---------|---------|---------|---------|-----------------------------|---------|----------------------------|
G|-4-------|-4-------|-5-------|-5-------|-2-----%----2-----%----7-----|-7-------|----------------------------|
D|-4-------|-4-------|-5-------|-5-------|-2-----%----2-----%----7-----|-7-------|------------------7----9----|
A|-2-------|-2-------|-3-------|-3-------|-0----------0----------5-----|-5-------|-10-----10---10-------------|
E|---------|---------|---------|---------|-----------------------------|---------|----------------------------|

E|----------------------------|---------|-----------------------------------------|
B|----------------------------|---------|-----------------------------------------|
G|----------------------------|---------|-9----7---------9----7-------------------|
D|-9------10---9----7---------|---------|-----------10-------------10---9---------|
A|-----------------------9----|-9-------|------------------------------------10---|
E|----------------------------|---------|-----------------------------------------|

E|----------------------------|----------------------------|---------|-----------------------------------------|
B|----------------------------|----------------------------|---------|-----------------------------------------|
G|----------------------------|----------------------------|---------|-----------------------------------------|
D|------------------7----9----|-9------10---9----7---------|---------|-10---9----7----10---9----7--------------|
A|-10-----10---10-------------|-----------------------9----|-9-------|-------------------------------9----10---|
E|----------------------------|----------------------------|---------|-----------------------------------------|

E|----------------------------|----------------------------|---------|-----------------------------------------|
B|----------------------------|----------------------------|---------|-----------------------------------------|
G|----------------------------|----------------------------|---------|-9----7---------9----7-------------------|
D|------------------7----9----|-9------10---9----7---------|---------|-----------10-------------10---9---------|
A|-10-----10---10-------------|-----------------------9----|-9-------|------------------------------------10---|
E|----------------------------|----------------------------|---------|-----------------------------------------|

E|----------------------------|----------------------------|---------|-----------------------------------------|
B|----------------------------|----------------------------|---------|-----------------------------------------|
G|----------------------------|----------------------------|---------|-----------------------------------------|
D|------------------7----9----|-9------10---9----7---------|---------|-10---9----7----10---9----7---------7----|
A|-10-----10---10-------------|-----------------------9----|-9-------|-------------------------------9---------|
E|----------------------------|----------------------------|---------|-----------------------------------------|

E|-----------------------------------------|-----------------------------------------|
B|-----------------------------------------|-----------------------------------------|
G|-----------------------------------------|-----------------------------------------|
D|-----------------------------------------|-----------------------------------------|
A|-2--------------2--------------2---------|------2--------------2---------0---------|
E|-0----0----0----0----0----0----0----0----|-0----0----0----0----0----0----0----0----|

E|-----------------------------------------|-----------------------------------------|
B|-----------------------------------------|-----------------------------------------|
G|-----------------------------------------|-----------------------------------------|
D|-----------------------------------------|-----------------------------------------|
A|-2--------------2--------------2---------|------2--------------2---------0---------|
E|-0----0----0----0----0----0----0----0----|-0----0----0----0----0----0----0----0----|

E|-----------------------------------------|-----------------------------------------|
B|-----------------------------------------|-----------------------------------------|
G|-----------------------------------------|-----------------------------------------|
D|-----------------------------------------|-----------------------------------------|
A|-2--------------2--------------2---------|------2--------------2---------0---------|
E|-0----0----0----0----0----0----0----0----|-0----0----0----0----0----0----0----0----|

E|-----------------------------------------|-----------------------------------------|
B|-----------------------------------------|-----------------------------------------|
G|-----------------------------------------|-----------------------------------------|
D|-----------------------------------------|-----------------------------------------|
A|-2--------------2--------------2---------|-5-------------------5-------------------|
E|-0----0----0----0----0----0----0----0----|------7----6----5---------7----6----5----|

E|-----------------------------------------|-----------------------------------------|
B|-----------------------------------------|-----------------------------------------|
G|-----------------------------------------|-----------------------------------------|
D|-----------------------------------------|-----------------------------------------|
A|-2--------------2--------------2---------|------2--------------2---------0---------|
E|-0----0----0----0----0----0----0----0----|-0----0----0----0----0----0----0----0----|

E|-----------------------------------------|-----------------------------------------|
B|-----------------------------------------|-----------------------------------------|
G|-----------------------------------------|-----------------------------------------|
D|-----------------------------------------|-----------------------------------------|
A|-2--------------2--------------2---------|------2--------------2---------0---------|
E|-0----0----0----0----0----0----0----0----|-0----0----0----0----0----0----0----0----|

E|-----------------------------------------|-----------------------------------------|
B|-----------------------------------------|-----------------------------------------|
G|-----------------------------------------|-----------------------------------------|
D|-----------------------------------------|-----------------------------------------|
A|-2--------------2--------------2---------|------2--------------2---------0---------|
E|-0----0----0----0----0----0----0----0----|-0----0----0----0----0----0----0----0----|

E|-----------------------------------------|-----------------------------------------|
B|-----------------------------------------|-----------------------------------------|
G|-----------------------------------------|-----------------------------------------|
D|-----------------------------------------|-----------------------------------------|
A|-2--------------2--------------2---------|------2--------------5-------------------|
E|-0----0----0----0----0----0----0----0----|-0----0----0----0---------7----6----5----|

E|-----------------------------------------|-----------------------------------------|
B|-----------------------------------------|-----------------------------------------|
G|-----------------------------------------|-----------------------------------------|
D|-----------------------------------------|-----------------------------------------|
A|-2--------------2--------------2---------|------2--------------2---------0---------|
E|-0----0----0----0----0----0----0----0----|-0----0----0----0----0----0----0----0----|

E|-----------------------------------------|-----------------------------------------|
B|-----------------------------------------|-----------------------------------------|
G|-----------------------------------------|-----------------------------------------|
D|-----------------------------------------|-----------------------------------------|
A|-2--------------2--------------2---------|------2--------------2---------0---------|
E|-0----0----0----0----0----0----0----0----|-0----0----0----0----0----0----0----0----|

E|-----------------------------------------|-----------------------------------------|
B|-----------------------------------------|-----------------------------------------|
G|-----------------------------------------|-----------------------------------------|
D|-----------------------------------------|-----------------------------------------|
A|-2--------------2--------------2---------|------2--------------2---------0---------|
E|-0----0----0----0----0----0----0----0----|-0----0----0----0----0----0----0----0----|

E|-----------------------------------------|---------------------|---------|---------|
B|-----------------------------------------|---------------------|---------|---------|
G|-----------------------------------------|-9------7------5-----|-4-------|-4-------|
D|-----------------------------------------|-9------7------5-----|-4-------|-4-------|
A|-2--------------2--------------2---------|-7------5------3-----|-2-------|-2-------|
E|-0----0----0----0----0----0----0----0----|---------------------|---------|---------|

E|---------|---------|---------|---------|-----------------------------|---------|----------------------------|
B|---------|---------|---------|---------|-----------------------------|---------|----------------------------|
G|-4-------|-4-------|-5-------|-5-------|-2-----%----2-----%----7-----|-7-------|----------------------------|
D|-4-------|-4-------|-5-------|-5-------|-2-----%----2-----%----7-----|-7-------|------------------7----9----|
A|-2-------|-2-------|-3-------|-3-------|-0----------0----------5-----|-5-------|-10-----10---10-------------|
E|---------|---------|---------|---------|-----------------------------|---------|----------------------------|

E|----------------------------|---------|-----------------------------------------|
B|----------------------------|---------|-----------------------------------------|
G|----------------------------|---------|-9----7---------9----7-------------------|
D|-9------10---9----7---------|---------|-----------10-------------10---9---------|
A|-----------------------9----|-9-------|------------------------------------10---|
E|----------------------------|---------|-----------------------------------------|

E|----------------------------|----------------------------|---------|-----------------------------------------|
B|----------------------------|----------------------------|---------|-----------------------------------------|
G|----------------------------|----------------------------|---------|-----------------------------------------|
D|------------------7----9----|-9------10---9----7---------|---------|-10---9----7----10---9----7--------------|
A|-10-----10---10-------------|-----------------------9----|-9-------|-------------------------------9----10---|
E|----------------------------|----------------------------|---------|-----------------------------------------|

E|----------------------------|----------------------------|---------|-----------------------------------------|
B|----------------------------|----------------------------|---------|-----------------------------------------|
G|----------------------------|----------------------------|---------|-9----7---------9----7-------------------|
D|------------------7----9----|-9------10---9----7---------|---------|-----------10-------------10---9---------|
A|-10-----10---10-------------|-----------------------9----|-9-------|------------------------------------10---|
E|----------------------------|----------------------------|---------|-----------------------------------------|

E|----------------------------|----------------------------|---------|---------------------------------|
B|----------------------------|----------------------------|---------|---------------------------------|
G|----------------------------|----------------------------|---------|-5----5----%-----7----7----%-----|
D|------------------7----9----|-9------10---9----7---------|---------|-5----5----%-----7----7----%-----|
A|-10-----10---10-------------|-----------------------9----|-9-------|-3----3----------5----5----------|
E|----------------------------|----------------------------|---------|---------------------------------|

E|-------------------------------------|---------|-------------------------------------|
B|-------------------------------------|---------|-------------------------------------|
G|-4----4----4----4----4----%-----%----|-%-------|-7----7----7----7----7----%-----%----|
D|-4----4----4----4----4----%-----%----|-%-------|-7----7----7----7----7----%-----%----|
A|-2----2----2----2----2---------------|---------|-5----5----5----5----5---------------|
E|-------------------------------------|---------|-------------------------------------|

E|-------------------------------------|-------------------------------------|---------|
B|-------------------------------------|-------------------------------------|---------|
G|-9----9----9----9----9----%-----%----|-4----4----4----4----4----%-----%----|-%-------|
D|-9----9----9----9----9----%-----%----|-4----4----4----4----4----%-----%----|-%-------|
A|-7----7----7----7----7---------------|-2----2----2----2----2---------------|---------|
E|-------------------------------------|-------------------------------------|---------|

E|-------------------------------------|-------------------------------------|-------------------------------------|
B|-------------------------------------|-------------------------------------|-------------------------------------|
G|-5----5----5----5----5----%-----%----|-2----2----2----2----2----%-----%----|-4----4----4----4----4----%-----%----|
D|-5----5----5----5----5----%-----%----|-2----2----2----2----2----%-----%----|-4----4----4----4----4----%-----%----|
A|-3----3----3----3----3---------------|-0----0----0----0----0---------------|-2----2----2----2----2---------------|
E|-------------------------------------|-------------------------------------|-------------------------------------|

E|---------|-------------------------------------|-------------------------------------|
B|---------|-------------------------------------|-------------------------------------|
G|-%-------|-7----7----7----7----7----%-----%----|-9----9----9----9----9----%-----%----|
D|-%-------|-7----7----7----7----7----%-----%----|-9----9----9----9----9----%-----%----|
A|---------|-5----5----5----5----5---------------|-7----7----7----7----7---------------|
E|---------|-------------------------------------|-------------------------------------|

E|---------|---------|---------|---------|---------|-------------------|-------------------|
B|---------|---------|---------|---------|---------|-------------------|-------------------|
G|-4-------|-4-------|-5-------|-7-------|---------|-------------------|-------------------|
D|-4-------|-4-------|-5-------|-7-------|-2-------|-2-------2----5----|-5-------5----7----|
A|-2-------|-2-------|-3-------|-5-------|-2-------|-2-------2----5----|-5-------5----7----|
E|---------|---------|---------|---------|-0-------|-0-------0----3----|-3-------3----5----|

E|-------------------|---------|-------------------|-------------------|-------------------|
B|-------------------|---------|-------------------|-------------------|-------------------|
G|-------------------|---------|-------------------|-------------------|-------------------|
D|-7-------7----2----|-2-------|-2-------2----5----|-5-------5----7----|-7-------7----2----|
A|-7-------7----2----|-2-------|-2-------2----5----|-5-------5----7----|-7-------7----2----|
E|-5-------5----0----|-0-------|-0-------0----3----|-3-------3----5----|-5-------5----0----|

E|---------|-------------------|-------------------|-------------------|---------|-------------------|
B|---------|-------------------|-------------------|-------------------|---------|-------------------|
G|---------|-------------------|-------------------|-------------------|---------|-------------------|
D|-2-------|-2-------2----5----|-5-------5----7----|-7-------7----2----|-2-------|-2-------2----5----|
A|-2-------|-2-------2----5----|-5-------5----7----|-7-------7----2----|-2-------|-2-------2----5----|
E|-0-------|-0-------0----3----|-3-------3----5----|-5-------5----0----|-0-------|-0-------0----3----|

E|-------------------|---------|---------|---------|---------|---------|---------|---------|
B|-------------------|---------|---------|---------|---------|---------|---------|---------|
G|-------------------|---------|-4-------|-4-------|-4-------|-4-------|-5-------|-5-------|
D|-5-------5----7----|-7-------|-4-------|-4-------|-4-------|-4-------|-5-------|-5-------|
A|-5-------5----7----|-7-------|-2-------|-2-------|-2-------|-2-------|-3-------|-3-------|
E|-3-------3----5----|-5-------|---------|---------|---------|---------|---------|---------|

E|-----------------------------|---------|----------------------------|----------------------------|
B|-----------------------------|---------|----------------------------|----------------------------|
G|-2-----%----2-----%----7-----|-7-------|----------------------------|----------------------------|
D|-2-----%----2-----%----7-----|-7-------|------------------7----9----|-9------10---9----7---------|
A|-0----------0----------5-----|-5-------|-10-----10---10-------------|-----------------------9----|
E|-----------------------------|---------|----------------------------|----------------------------|

E|---------|-----------------------------------------|----------------------------|
B|---------|-----------------------------------------|----------------------------|
G|---------|-9----7---------9----7-------------------|----------------------------|
D|---------|-----------10-------------10---9---------|------------------7----9----|
A|-9-------|------------------------------------10---|-10-----10---10-------------|
E|---------|-----------------------------------------|----------------------------|

E|----------------------------|---------|-----------------------------------------|
B|----------------------------|---------|-----------------------------------------|
G|----------------------------|---------|-----------------------------------------|
D|-9------10---9----7---------|---------|-10---9----7----10---9----7--------------|
A|-----------------------9----|-9-------|-------------------------------9----10---|
E|----------------------------|---------|-----------------------------------------|

E|-----------------------------------------|-------------------------------------|-----------------------------------------|
B|-----------------------------------------|-------------------------------------|-----------------------------------------|
G|-----------------------------------------|-------------------------------------|-----------------------------------------|
D|-----------------------------------------|-------------------------------------|-----------------------------------------|
A|-7----5---------7----5---------7----5----|------7----5---------7----5----------|-7----5---------7----5---------7----5----|
E|-----------7--------------7--------------|-7--------------7--------------7-----|-----------7--------------7--------------|

E|-------------------------------------|-----------------------------------------|-------------------------------------|
B|-------------------------------------|-----------------------------------------|-------------------------------------|
G|-------------------------------------|-----------------------------------------|-------------------------------------|
D|-------------------------------------|-----------------------------------------|-------------------------------------|
A|------7----5---------7----5----------|-7----5---------7----5---------7----5----|------7----5---------7----5----------|
E|-7--------------7--------------7-----|-----------7--------------7--------------|-7--------------7--------------7-----|

E|------------------------|
B|------------------------|
G|-9----9----9-----%------|
D|-9----9----9-----%------|
A|-7----7----7------------|
E|------------------------|
Iron Maiden - Road To Hell
Iron Maiden - Road To Hell.gp3