Iron Maiden - Run Silent Run Deep

Iron Maiden



Title: Run Silent Run Deep
Album: No Prayer For The Dying
Artist: Iron Maiden
Author: Iron Maiden

Track 1: Clean Guitar
E|-----------0---------1--------------0----|-0---------0-------------------0---------|
B|------0---------0---------3--------------|---------------------3-------------------|
G|-------------------------------2---------|------2---------2---------2---------2----|
D|-2---------------------------------------|------------------------------------2----|
A|-----------------------------------------|-----------------------------------------|
E|-----------------------------------------|-----------------------------------------|

E|------0----0-------|-----------0---------1--------------0----|-0---------0-------------------0---------|
B|------0----0-------|------0---------0---------3--------------|---------------------3-------------------|
G|-2-----------------|-------------------------------2---------|------2---------2---------2---------0----|
D|-2----2----2-------|-2---------------------------------------|------------------------------------0----|
A|-------------------|-----------------------------------------|-----------------------------------------|
E|-------------------|-----------------------------------------|------------------------------------3----|

E|-------------------|---------|---------|---------|---------|---------|---------|---------|
B|------3----3-------|---------|---------|---------|---------|---------|---------|---------|
G|-0----2----2-------|-%-------|-%-------|-%-------|-%-------|-%-------|-%-------|-%-------|
D|-0----0----0-------|-%-------|-%-------|-%-------|-%-------|-%-------|-%-------|-%-------|
A|-------------------|---------|---------|---------|---------|---------|---------|---------|
E|-3-----------------|---------|---------|---------|---------|---------|---------|---------|

E|---------|---------|---------|---------|---------|---------|---------|---------|---------|
B|---------|---------|---------|---------|---------|---------|---------|---------|---------|
G|-%-------|-%-------|-%-------|-%-------|-%-------|-%-------|-%-------|-%-------|-%-------|
D|-%-------|-%-------|-%-------|-%-------|-%-------|-%-------|-%-------|-%-------|-%-------|
A|---------|---------|---------|---------|---------|---------|---------|---------|---------|
E|---------|---------|---------|---------|---------|---------|---------|---------|---------|

E|---------|---------|---------|---------|---------|---------|---------|---------|---------|
B|---------|---------|---------|---------|---------|---------|---------|---------|---------|
G|-%-------|-%-------|-%-------|-%-------|-%-------|-%-------|-%-------|-%-------|-%-------|
D|-%-------|-%-------|-%-------|-%-------|-%-------|-%-------|-%-------|-%-------|-%-------|
A|---------|---------|---------|---------|---------|---------|---------|---------|---------|
E|---------|---------|---------|---------|---------|---------|---------|---------|---------|

E|---------|---------|---------|---------|---------|---------|---------|---------|---------|
B|---------|---------|---------|---------|---------|---------|---------|---------|---------|
G|-%-------|-%-------|-%-------|-%-------|-%-------|-%-------|-%-------|-%-------|-%-------|
D|-%-------|-%-------|-%-------|-%-------|-%-------|-%-------|-%-------|-%-------|-%-------|
A|---------|---------|---------|---------|---------|---------|---------|---------|---------|
E|---------|---------|---------|---------|---------|---------|---------|---------|---------|

E|---------|---------|---------|---------|---------|---------|---------|---------|---------|
B|---------|---------|---------|---------|---------|---------|---------|---------|---------|
G|-%-------|-%-------|-%-------|-%-------|-%-------|-%-------|-%-------|-%-------|-%-------|
D|-%-------|-%-------|-%-------|-%-------|-%-------|-%-------|-%-------|-%-------|-%-------|
A|---------|---------|---------|---------|---------|---------|---------|---------|---------|
E|---------|---------|---------|---------|---------|---------|---------|---------|---------|

E|---------|---------|---------|---------|---------|---------|---------|---------|---------|
B|---------|---------|---------|---------|---------|---------|---------|---------|---------|
G|-%-------|-%-------|-%-------|-%-------|-%-------|-%-------|-%-------|-%-------|-%-------|
D|-%-------|-%-------|-%-------|-%-------|-%-------|-%-------|-%-------|-%-------|-%-------|
A|---------|---------|---------|---------|---------|---------|---------|---------|---------|
E|---------|---------|---------|---------|---------|---------|---------|---------|---------|

E|---------|---------|---------|---------|---------|---------|---------|---------|---------|
B|---------|---------|---------|---------|---------|---------|---------|---------|---------|
G|-%-------|-%-------|-%-------|-%-------|-%-------|-%-------|-%-------|-%-------|-%-------|
D|-%-------|-%-------|-%-------|-%-------|-%-------|-%-------|-%-------|-%-------|-%-------|
A|---------|---------|---------|---------|---------|---------|---------|---------|---------|
E|---------|---------|---------|---------|---------|---------|---------|---------|---------|

E|---------|---------|---------|---------|---------|
B|---------|---------|---------|---------|---------|
G|-%-------|-%-------|-%-------|-%-------|-%-------|
D|-%-------|-%-------|-%-------|-%-------|-%-------|
A|---------|---------|---------|---------|---------|
E|---------|---------|---------|---------|---------|
Iron Maiden - Run Silent Run Deep
Iron Maiden - Run Silent Run Deep.gp3