Iron Maiden - Run to the Hills

Iron Maiden



Title: Run to the Hills
Album: The Number Of The Beast 
Artist: Iron Maiden
Author: Iron Maiden

Track 1: Dave (rhy. guitar + solo)
E|---------|---------|---------|---------|----------------------------|----------------------------|
B|---------|---------|---------|---------|-17----17--17---15---15-----|-15----15--15---17---17-----|
G|-%-------|-%-------|-%-------|-%-------|-19----19--19---17---17-----|-17----17--17---19---19-----|
D|-%-------|-%-------|-%-------|-%-------|----------------------------|----------------------------|
A|---------|---------|---------|---------|----------------------------|----------------------------|
E|---------|---------|---------|---------|----------------------------|----------------------------|

E|----------------------------|----------------------------|----------------------------|
B|-13----13--13---15---15-----|-8-----8---8----10---10-----|-17----17--17---15---15-----|
G|-16----16--16---17---17-----|-10----10--10---12---12-----|-19----19--19---17---17-----|
D|----------------------------|----------------------------|----------------------------|
A|----------------------------|----------------------------|----------------------------|
E|----------------------------|----------------------------|----------------------------|

E|----------------------------|----------------------------|----------------------------|
B|-15----15--15---17---17-----|-13----13--13---15---15-----|-8-----8---8----10---10-----|
G|-17----17--17---19---19-----|-16----16--16---17---17-----|-10----10--10---12---12-----|
D|----------------------------|----------------------------|----------------------------|
A|----------------------------|----------------------------|----------------------------|
E|----------------------------|----------------------------|----------------------------|

E|----------------------------|----------------------------|----------------------------|
B|-17----17--17---15---15-----|-15----15--15---17---17-----|-13----13--13---15---15-----|
G|-19----19--19---17---17-----|-17----17--17---19---19-----|-16----16--16---17---17-----|
D|----------------------------|----------------------------|----------------------------|
A|----------------------------|----------------------------|----------------------------|
E|----------------------------|----------------------------|----------------------------|

E|----------------------------|----------------------------|----------------------------|
B|-8-----8---8----10---10-----|-17----17--17---15---15-----|-15----15--15---17---17-----|
G|-10----10--10---12---12-----|-19----19--19---17---17-----|-17----17--17---19---19-----|
D|----------------------------|----------------------------|----------------------------|
A|----------------------------|----------------------------|----------------------------|
E|----------------------------|----------------------------|----------------------------|

E|----------------------------|----------------------------|----------------------------|
B|-13----13--13---15---15-----|-8-----8---8----10---10-----|-17----17--17---15---15-----|
G|-16----16--16---17---17-----|-10----10--10---12---12-----|-19----19--19---17---17-----|
D|----------------------------|----------------------------|----------------------------|
A|----------------------------|----------------------------|----------------------------|
E|----------------------------|----------------------------|----------------------------|

E|----------------------------|----------------------------|-----------------------------------------------|
B|-15----15--15---17---17-----|-13----13--13---15---15-----|-8-----8---8----13---13----13--13----13--13----|
G|-17----17--17---19---19-----|-16----16--16---17---17-----|-10----10--10----------------------------------|
D|----------------------------|----------------------------|-----------------------------------------------|
A|----------------------------|----------------------------|-----------------------------------------------|
E|----------------------------|----------------------------|-----------------------------------------------|

E|---------------------------------|--------------------|-----------------------------------------------------|
B|-13---------------15---------15--|-15----15-----15----|-----------------------------------------------------|
G|--------13---13--------13--------|--------------------|-----------------------------------------------------|
D|---------------------------------|--------------------|-7----7---7---7----7---7---7----7---7---7----7---7---|
A|---------------------------------|--------------------|-5----5---5---5----5---5---5----5---5---5----0---0---|
E|---------------------------------|--------------------|-----------------------------------------------------|

E|-----------------------------------------------------|-----------------------------------------------------|
B|-----------------------------------------------------|-----------------------------------------------------|
G|-----------------------------------------------------|-----------------------------------------------------|
D|-7----7---7---7----7---7---7----7---7---7----5---5---|-5----5---5---5----5---5---5----5---5---5----5---5---|
A|-5----5---5---5----5---5---5----5---5---5----0---0---|-3----3---3---3----3---3---3----3---3---3----3---3---|
E|-----------------------------------------------------|-----------------------------------------------------|

E|---------------------------------|-----------------------------------------------------|
B|---------------------------------|-----------------------------------------------------|
G|---------------------------------|-----------------------------------------------------|
D|-5----5----5-----5----5----5-----|-7----7---7---7----7---7---7----7---7---7----7---7---|
A|-3----3----2-----3----3----2-----|-5----5---5---5----5---5---5----5---5---5----0---0---|
E|---------------------------------|-----------------------------------------------------|

E|-----------------------------------------------------|-----------------------------------------------------|
B|-----------------------------------------------------|-----------------------------------------------------|
G|-----------------------------------------------------|-----------------------------------------------------|
D|-7----7---7---7----7---7---7----7---7---7----5---5---|-5----5---5---5----5---5---5----5---5---5----5---5---|
A|-5----5---5---5----5---5---5----5---5---5----3---3---|-3----3---3---3----3---3---3----3---3---3----3---3---|
E|-----------------------------------------------------|-----------------------------------------------------|

E|---------------------------------|----------------------|-------------------------------------|
B|---------------------------------|----------------------|-------------------------------------|
G|---------------------------------|----------------------|-------------------------------------|
D|-5----5----5-----5----5----5-----|-2-------2----X---X---|-5------5----X---X---X---X-----------|
A|-3----3----2-----3----3----2-----|-0-------0----X---X---|-3------3----X---X---X---X---3---3---|
E|---------------------------------|--------------X---X---|-------------X---X---X---X---1---1---|

E|----------------------|----------------------------|-------------------------|-----------------------------------------------------|
B|----------------------|----------------------------|-------------------------|-----------------------------------------------------|
G|----------------------|----------------------------|-------------------------|-----------------------------------------------------|
D|--------------7---7---|-7------7----7----7----7----|-7-----7-----7-----7-----|-5----5---5---5----5---5---5----5---5---5----5---5---|
A|-3-------3----5---5---|-5------5----5----5----5----|-5-----5-----5-----5-----|-5----5---5---5----5---5---5----5---5---5----5---5---|
E|-1-------1------------|----------------------------|-------------------------|-3----3---3---3----3---3---3----3---3---3----3---3---|

E|----------------------------------------------|----------------------------------------------|
B|----------------------------------------------|----------------------------------------------|
G|----------------------------------------------|----------------------------------------------|
D|-5----5---5---5----5---5---5----5---5---5-----|-3----3---3---3----3---3---3----3---3---3-----|
A|-5----5---5---5----5---5---5----5---5---5-----|-3----3---3---3----3---3---3----3---3---3-----|
E|-3----3---3---3----3---3---3----3---3---3-----|-1----1---1---1----1---1---1----1---1---1-----|

E|----------------------------------------------|-----------------------------------------------------|
B|----------------------------------------------|-----------------------------------------------------|
G|----------------------------------------------|-----------------------------------------------------|
D|-3----3---3---3----3---3---3----3---3---3-----|-5----5---5---5----5---5---5----5---5---5----5---5---|
A|-3----3---3---3----3---3---3----3---3---3-----|-3----3---3---3----3---3---3----3---3---3----3---3---|
E|-1----1---1---1----1---1---1----1---1---1-----|-----------------------------------------------------|

E|-------------------------------------------|-------------------------|-----------------------------|
B|-------------------------------------------|-------------------------|-----------------------------|
G|-------------------------------------------|-------------------------|-----------------------------|
D|-5----5---5---5----5---5---5----5----5-----|-5-----5-----5-----5-----|-5-----2-----3-----4----5----|
A|-3----3---3---3----3---3---3----3----3-----|-5-----5-----5-----5-----|-5-----2-----3-----4----5----|
E|-------------------------------------------|-3-----3-----3-----3-----|-3-----0-----1-----2----3----|

E|-----------------------------------------------------|----------------------------------------------|
B|-----------------------------------------------------|----------------------------------------------|
G|-----------------------------------------------------|----------------------------------------------|
D|-5----5---5---5----5---5---5----5---5---5----5---5---|-5----5---5---5----5---5---5----5---5---5-----|
A|-5----5---5---5----5---5---5----5---5---5----5---5---|-5----5---5---5----5---5---5----5---5---5-----|
E|-3----3---3---3----3---3---3----3---3---3----3---3---|-3----3---3---3----3---3---3----3---3---3-----|

E|----------------------------------------------|----------------------------------------------|
B|----------------------------------------------|----------------------------------------------|
G|----------------------------------------------|----------------------------------------------|
D|-3----3---3---3----3---3---3----3---3---3-----|-3----3---3---3----3---3---3----3---3---3-----|
A|-3----3---3---3----3---3---3----3---3---3-----|-3----3---3---3----3---3---3----3---3---3-----|
E|-1----1---1---1----1---1---1----1---1---1-----|-1----1---1---1----1---1---1----1---1---1-----|

E|-----------------------------------------------------|----------------------------------|
B|-----------------------------------------------------|----------------------------------|
G|-----------------------------------------------------|----------------------------------|
D|-5----5---5---5----5---5---5----5---5---5----5---5---|-5----5---5---5----5---5---5------|
A|-3----3---3---3----3---3---3----3---3---3----3---3---|-3----3---3---3----3---3---2------|
E|-----------------------------------------------------|----------------------------------|

E|---------|----------------------|-----------------------------------------------------|
B|---------|----------------------|-----------------------------------------------------|
G|---------|----------------------|-----------------------------------------------------|
D|-5-------|-5------------7---7---|-7----7---7---7----7---7---7----7---7---7----7---7---|
A|-5-------|-5-------0----5---5---|-5----5---5---5----5---5---5----5---5---5----0---0---|
E|-3-------|-3-------0------------|-----------------------------------------------------|

E|-----------------------------------------------------|-----------------------------------------------------|
B|-----------------------------------------------------|-----------------------------------------------------|
G|-----------------------------------------------------|-----------------------------------------------------|
D|-7----7---7---7----7---7---7----7---7---7----5---5---|-5----5---5---5----5---5---5----5---5---5----5---5---|
A|-5----5---5---5----5---5---5----5---5---5----0---0---|-3----3---3---3----3---3---3----3---3---3----3---3---|
E|-----------------------------------------------------|-----------------------------------------------------|

E|---------------------------------|-----------------------------------------------------|
B|---------------------------------|-----------------------------------------------------|
G|---------------------------------|-----------------------------------------------------|
D|-5----5----5-----5----5----5-----|-7----7---7---7----7---7---7----7---7---7----7---7---|
A|-3----3----2-----3----3----2-----|-5----5---5---5----5---5---5----5---5---5----0---0---|
E|---------------------------------|-----------------------------------------------------|

E|-----------------------------------------------------|-----------------------------------------------------|
B|-----------------------------------------------------|-----------------------------------------------------|
G|-----------------------------------------------------|-----------------------------------------------------|
D|-7----7---7---7----7---7---7----7---7---7----5---5---|-5----5---5---5----5---5---5----5---5---5----5---5---|
A|-5----5---5---5----5---5---5----5---5---5----3---3---|-3----3---3---3----3---3---3----3---3---3----3---3---|
E|-----------------------------------------------------|-----------------------------------------------------|

E|---------------------------------|----------------------|-------------------------------------|
B|---------------------------------|----------------------|-------------------------------------|
G|---------------------------------|----------------------|-------------------------------------|
D|-5----5----5-----5----5----5-----|-2-------2----X---X---|-5------5----X---X---X---X-----------|
A|-3----3----2-----3----3----2-----|-0-------0----X---X---|-3------3----X---X---X---X---3---3---|
E|---------------------------------|--------------X---X---|-------------X---X---X---X---1---1---|

E|----------------------|----------------------------|-------------------------|-----------------------------------------------------|
B|----------------------|----------------------------|-------------------------|-----------------------------------------------------|
G|----------------------|----------------------------|-------------------------|-----------------------------------------------------|
D|--------------7---7---|-7------7----7----7----7----|-7-----7-----7-----7-----|-5----5---5---5----5---5---5----5---5---5----5---5---|
A|-3-------3----5---5---|-5------5----5----5----5----|-5-----5-----5-----5-----|-5----5---5---5----5---5---5----5---5---5----5---5---|
E|-1-------1------------|----------------------------|-------------------------|-3----3---3---3----3---3---3----3---3---3----3---3---|

E|----------------------------------------------|----------------------------------------------|
B|----------------------------------------------|----------------------------------------------|
G|----------------------------------------------|----------------------------------------------|
D|-5----5---5---5----5---5---5----5---5---5-----|-3----3---3---3----3---3---3----3---3---3-----|
A|-5----5---5---5----5---5---5----5---5---5-----|-3----3---3---3----3---3---3----3---3---3-----|
E|-3----3---3---3----3---3---3----3---3---3-----|-1----1---1---1----1---1---1----1---1---1-----|

E|----------------------------------------------|-----------------------------------------------------|
B|----------------------------------------------|-----------------------------------------------------|
G|----------------------------------------------|-----------------------------------------------------|
D|-3----3---3---3----3---3---3----3---3---3-----|-5----5---5---5----5---5---5----5---5---5----5---5---|
A|-3----3---3---3----3---3---3----3---3---3-----|-3----3---3---3----3---3---3----3---3---3----3---3---|
E|-1----1---1---1----1---1---1----1---1---1-----|-----------------------------------------------------|

E|-------------------------------------------|-------------------------|-----------------------------|
B|-------------------------------------------|-------------------------|-----------------------------|
G|-------------------------------------------|-------------------------|-----------------------------|
D|-5----5---5---5----5---5---5----5----5-----|-5-----5-----5-----5-----|-5-----2-----3-----4----5----|
A|-3----3---3---3----3---3---3----3----3-----|-5-----5-----5-----5-----|-5-----2-----3-----4----5----|
E|-------------------------------------------|-3-----3-----3-----3-----|-3-----0-----1-----2----3----|

E|-----------------------------------------------------|----------------------------------------------|
B|-----------------------------------------------------|----------------------------------------------|
G|-----------------------------------------------------|----------------------------------------------|
D|-5----5---5---5----5---5---5----5---5---5----5---5---|-5----5---5---5----5---5---5----5---5---5-----|
A|-5----5---5---5----5---5---5----5---5---5----5---5---|-5----5---5---5----5---5---5----5---5---5-----|
E|-3----3---3---3----3---3---3----3---3---3----3---3---|-3----3---3---3----3---3---3----3---3---3-----|

E|----------------------------------------------|----------------------------------------------|
B|----------------------------------------------|----------------------------------------------|
G|----------------------------------------------|----------------------------------------------|
D|-3----3---3---3----3---3---3----3---3---3-----|-3----3---3---3----3---3---3----3---3---3-----|
A|-3----3---3---3----3---3---3----3---3---3-----|-3----3---3---3----3---3---3----3---3---3-----|
E|-1----1---1---1----1---1---1----1---1---1-----|-1----1---1---1----1---1---1----1---1---1-----|

E|-----------------------------------------------------|----------------------------------|
B|-----------------------------------------------------|----------------------------------|
G|-----------------------------------------------------|----------------------------------|
D|-5----5---5---5----5---5---5----5---5---5----5---5---|-5----5---5---5----5---5---5------|
A|-3----3---3---3----3---3---3----3---3---3----3---3---|-3----3---3---3----3---3---2------|
E|-----------------------------------------------------|----------------------------------|

E|----------------------------17---|-17----------------------------------|----------------------------|
B|-----------------------15--------|-------------15----------15----15----|-15-----15---15---12---15---|
G|-----------------%---------------|-------14----------12----------------|----------------------------|
D|-5----5----5-----%---------------|-------------------------------------|----------------------------|
A|-5----5----5---------------------|-------------------------------------|----------------------------|
E|-3----3----3---------------------|-------------------------------------|----------------------------|

E|-----12-------12--15--12------12--14--12------12------------------|-12--14--12-----------12--14--12----------------------------------|
B|-15------15---------------15--------------15------15--15--12--15--|-------------15---12--------------15--12--------------------------|
G|------------------------------------------------------------------|------------------------------------------15--12--14--12--14--12--|
D|------------------------------------------------------------------|------------------------------------------------------------------|
A|------------------------------------------------------------------|------------------------------------------------------------------|
E|------------------------------------------------------------------|------------------------------------------------------------------|

E|---------------------------------------------------------------------|-------------------------------------------------------|
B|---------------------------------------------------------------------|------------------------------------------12---15--17--|
G|-12------------------------------------------------------------------|------------------------------12-14-12-----------------|
D|-----14--12--14--12--14--12--14--12----------------------------------|--------------14--12--14--12---------------------------|
A|-------------------------------------14--12--14--12--14--12--14--12--|-14--12--10--------------------------------------------|
E|---------------------------------------------------------------------|-------------------------------------------------------|

E|---------------------------------------------------------------------|-------------------------------------------|
B|-15--12--15--17--15--12--17--15--17--15--17--15--17--15--17--15--17--|-15---17--15--15--17--15---15--17----17----|
G|---------------------------------------------------------------------|-------------------------------------------|
D|---------------------------------------------------------------------|-------------------------------------------|
A|---------------------------------------------------------------------|-------------------------------------------|
E|---------------------------------------------------------------------|-------------------------------------------|

E|---------------------------------------------------12--15--|-12--17--12--17--12--17--12--------------------------------------|
B|-17--17--17--17--17--17--17--17--17--17----12--14----------|-----------------------------15--12--15--12--15--12------12------|
G|-----------------------------------------------------------|-----------------------------------------------------14------14--|
D|-----------------------------------------------------------|-----------------------------------------------------------------|
A|-----------------------------------------------------------|-----------------------------------------------------------------|
E|-----------------------------------------------------------|-----------------------------------------------------------------|

E|----------------------------------|----------------------------|----------------------------15--17--|
B|----------------------14---14-----|-14---14--------------------|-15---12----13---15---12------------|
G|-12--14--12--14--12---14---14-----|-14---14---3---0-----0------|------------------------------------|
D|----------------------------------|----------------------------|------------------------------------|
A|----------------------------------|----------------------------|------------------------------------|
E|----------------------------------|----------------------------|------------------------------------|

E|-17---15--17--15--14----15---14--15--14-------------|-----------------------------------------------------|
B|-----------------------------------------17---15-17-|-15-----------15--12--15--12--13---12----------------|
G|----------------------------------------------------|-----17--16-----------------------------14---12--14--|
D|----------------------------------------------------|-----------------------------------------------------|
A|----------------------------------------------------|-----------------------------------------------------|
E|----------------------------------------------------|-----------------------------------------------------|

E|-------------------------------------------10----|-10-----10---------10----|-------------------------------------|
B|-------------------------------------------10----|-10-----10---10----10----|-------------------------------------|
G|-12--14--12--14--12--9---7---9---7----0----------|-------------------------|-9--------------9--------------9-----|
D|-------------------------------------------------|-------------------------|-7--------------7--------------7-----|
A|-------------------------------------------------|-------------------------|------0----0---------0----0----------|
E|-------------------------------------------------|-------------------------|-------------------------------------|

E|-------------------------------------|-------------------------------------|----------------------------|
B|-------------------------------------|-------------------------------------|----------------------------|
G|-11-------------11-------------11----|-12-------------12-------------12----|-14-------------14---14-----|
D|-9--------------9--------------9-----|-10-------------10-------------10----|-12-------------12---12-----|
A|------0----0---------0----0----------|------0----0---------0----0----------|------0----0----------------|
E|-------------------------------------|-------------------------------------|----------------------------|

E|-----------------------------------------|-----------------------------------------|
B|-----------------------------------------|-----------------------------------------|
G|-9--------------9--------------9---------|-11-------------11-------------11--------|
D|-7--------------7--------------7----7----|-9--------------9--------------9---------|
A|------0----0---------0----0---------0----|------0----0---------0----0---------0----|
E|-----------------------------------------|-----------------------------------------|

E|-------------------------------------|----------------------------|-----------------------------------------|
B|-------------------------------------|----------------------------|-10---10---10---10---10---10---10---10---|
G|-12-------------12-------------12----|-14-------------14---14-----|-----------------------------------------|
D|-10-------------10-------------10----|-12-------------12---12-----|-7----7----7----7----7----7----7----7----|
A|------0----0---------0----0----------|------0----0----------------|-----------------------------------------|
E|-------------------------------------|----------------------------|-----------------------------------------|

E|-----------------------------------------|-----------------------------------------|
B|-12---12---12---12---12---12---12---13---|-13---13---13---13---13---13---13---15---|
G|-----------------------------------------|-----------------------------------------|
D|-9----9----9----9----9----9----9----10---|-10---10---10---10---10---10---10---12---|
A|-----------------------------------------|-----------------------------------------|
E|-----------------------------------------|-----------------------------------------|

E|-----------------------------------------|-----------------------------------------|
B|-15---15---15---15---15---15---15---10---|-10---10---10---10---10---10---10---10---|
G|-----------------------------------------|-----------------------------------------|
D|-12---12---12---12---12---12---12---7----|-7----7----7----7----7----7----7----7----|
A|-----------------------------------------|-----------------------------------------|
E|-----------------------------------------|-----------------------------------------|

E|-----------------------------------------|-----------------------------------------|
B|-12---12---12---12---12---12---12---13---|-13---13---13---13---13---13---13---15---|
G|-----------------------------------------|-----------------------------------------|
D|-9----9----9----9----9----9----9----10---|-10---10---10---10---10---10---10---12---|
A|-----------------------------------------|-----------------------------------------|
E|-----------------------------------------|-----------------------------------------|

E|------------------------|-----------------------------------------------------|----------------------------------------------|
B|-15---15---15-----------|-----------------------------------------------------|----------------------------------------------|
G|------------------------|-----------------------------------------------------|----------------------------------------------|
D|-12---12---12----15-----|-5----5---5---5----5---5---5----5---5---5----5---5---|-5----5---5---5----5---5---5----5---5---5-----|
A|-----------------15-----|-5----5---5---5----5---5---5----5---5---5----5---5---|-5----5---5---5----5---5---5----5---5---5-----|
E|-----------------15-----|-3----3---3---3----3---3---3----3---3---3----3---3---|-3----3---3---3----3---3---3----3---3---3-----|

E|---------|---------------------------------------------|-----------------------------------------------------|
B|---------|---------------------------------------------|-----------------------------------------------------|
G|---------|---------------------------------------------|-----------------------------------------------------|
D|-3-------|-3---3---3---3---3-----3---3---3---3---3-----|-5----5---5---5----5---5---5----5---5---5----5---5---|
A|-3-------|-3---3---3---3---3-----3---3---3---3---3-----|-3----3---3---3----3---3---3----3---3---3----3---3---|
E|-1-------|-1---1---1---1---1-----1---1---1---1---1-----|-----------------------------------------------------|

E|-------------------------------------------|--------------------|---------------------------------|
B|-------------------------------------------|--------------------|---------------------------------|
G|-------------------------------------------|--------%-----5-----|-5--------------------------12---|
D|-5----5---5---5----5---5---5----5----5-----|--------%-----------|------------5----5-----12--------|
A|-3----3---3---3----3---3---3----3----3-----|-5------------------|-------5-------------------------|
E|-------------------------------------------|-3------------------|---------------------------------|

E|---------|---------------|---------|---------------------------------------------|
B|---------|---------------|---------|---------------------------------------------|
G|-12------|-12------------|---------|---------------------------------------------|
D|---------|---------------|-3-------|-3---3---3---3---3-----3---3---3---3---3-----|
A|---------|---------12----|-3-------|-3---3---3---3---3-----3---3---3---3---3-----|
E|---------|---------12----|-1-------|-1---1---1---1---1-----1---1---1---1---1-----|

E|-----------------------------------------------------|-------------------------------------------|
B|-----------------------------------------------------|-------------------------------------------|
G|-----------------------------------------------------|-------------------------------------------|
D|-5----5---5---5----5---5---5----5---5---5----5---5---|-5----5---5---5----5---5---5----5----5-----|
A|-3----3---3---3----3---3---3----3---3---3----3---3---|-3----3---3---3----3---3---3----3----3-----|
E|-----------------------------------------------------|-------------------------------------------|

E|--------------------|---------------------------------|---------|---------------|
B|--------------------|---------------------------------|---------|---------------|
G|--------%-----5-----|-5--------------------------12---|-12------|-12------------|
D|--------%-----------|------------5----5-----12--------|---------|---------------|
A|-5------------------|-------5-------------------------|---------|---------12----|
E|-3------------------|---------------------------------|---------|---------12----|

E|---------|---------------------------------------------|-----------------------------------------------------|
B|---------|---------------------------------------------|-----------------------------------------------------|
G|---------|---------------------------------------------|-----------------------------------------------------|
D|-3-------|-3---3---3---3---3-----3---3---3---3---3-----|-5----5---5---5----5---5---5----5---5---5----5---5---|
A|-3-------|-3---3---3---3---3-----3---3---3---3---3-----|-3----3---3---3----3---3---3----3---3---3----3---3---|
E|-1-------|-1---1---1---1---1-----1---1---1---1---1-----|-----------------------------------------------------|

E|-------------------------------------------|-------------------------------------------------------|
B|-------------------------------------------|-------------------------------------------------------|
G|-------------------------------------------|-0-----7---4---7---4---7---4---7---4---7---4---7---4---|
D|-5----5---5---5----5---5---5----5----5-----|-0-----------------------------------------------------|
A|-3----3---3---3----3---3---3----3----3-----|-------------------------------------------------------|
E|-------------------------------------------|-------------------------------------------------------|

E|-------------------------------------------3----3---3---|----------------------------------|
B|-------------------------------------------3----3---3---|-3--------------------------------|
G|-7---4---7---4---7---4---7---4---4----4----0----0---0---|-0--------------------------------|
D|-------------------------------------------0----0---0---|-0--------------------------------|
A|--------------------------------------------------------|--------5----5---5---5----5---5---|
E|-------------------------------------------3----3---3---|-3------3----3---3---3----3---3---|

E|----------------------------------------------|---------|---------------------------------------|
B|----------------------------------------------|---------|---------------------------------------|
G|----------------------------------------------|---------|---------------------------------------|
D|----------------------------------------------|-3-------|-3----3---3---3-----3----3---3---3-----|
A|-5----5---5---5----5---5---5----5---5---5-----|-3-------|-3----3---3---3-----3----3---3---3-----|
E|-3----3---3---3----3---3---3----3---3---3-----|-1-------|-1----1---1---1-----1----1---1---1-----|

E|---------|---------------|-3-----------------------------------------------|-----------------------------------------------------------------|
B|---------|---------------|-3-----------------------------------------------|-----------------------------------------------------------------|
G|---------|---------------|-0-----5----5---3---5----5----3--5---3---5---3---|-3---5---3---5---3---5---3---5---3---5---3---5---3---5---3---5---|
D|-5-------|-5------5------|-0-----------------------------------------------|-----------------------------------------------------------------|
A|-3-------|-3------2------|-------------------------------------------------|-----------------------------------------------------------------|
E|---------|---------------|-3-----------------------------------------------|-----------------------------------------------------------------|

E|----------------------|----------------------------------------|----------------------------------------------------|
B|----------------------|----------------------------------------|----------------------------------------------------|
G|-3-------5---3---0----|-0--------------------------------------|-----------------5---3---5---3---5---3---0----0-----|
D|----------------------|----------------------------------------|----------------------------------------------------|
A|----------------------|----------------------------------------|----------------------------------------------------|
E|----------------------|--------X---X---X---X---X---X---X---X---|-X---X---X---X--------------------------------------|

E|----------------------|-------------------------------------------|------------------------|
B|----------------------|-------------------------------------------|------------------------|
G|-0--------------------|-------------------------------------------|-----------%-----%------|
D|---------2---0----2---|-0-------------------------X---X-----------|-----------%-----%------|
A|-0--------------------|-----------------------------------X---X---|-7----10----------------|
E|----------------------|------0----0----0----0---------------------|------------------------|
Iron Maiden - Run to the Hills
Iron Maiden - Run to the Hills.gp3