Iron Maiden - Run To the Hills (2)

Iron Maiden - Run To the Hills (2)

Iron Maiden



Title: Run To the Hills (2)
Album: 
Artist: 
Author: Iron Maiden

Track 1: Guitar 1
E|---------|---------|---------|------------------------|----------------------------|
B|---------|---------|---------|-------------------15---|-15----15----13-----13------|
G|-%-------|-%-------|-%-------|-%------%-----%---------|------------------------%---|
D|-%-------|-%-------|-%-------|-%------%-----%---------|------------------------%---|
A|---------|---------|---------|------------------------|----------------------------|
E|---------|---------|---------|------------------------|----------------------------|

E|----------------------------|----------------------------|----------------------------|
B|-13----13----15-----15------|-11----11----13-----13------|----------------------------|
G|------------------------%---|------------------------%---|-10----10----12-----12--%---|
D|------------------------%---|------------------------%---|------------------------%---|
A|----------------------------|----------------------------|----------------------------|
E|----------------------------|----------------------------|----------------------------|

E|----------------------------|----------------------------|----------------------------|
B|-15----15----13-----13------|-13----13----15-----15------|-11----11----13-----13------|
G|------------------------%---|------------------------%---|------------------------%---|
D|------------------------%---|------------------------%---|------------------------%---|
A|----------------------------|----------------------------|----------------------------|
E|----------------------------|----------------------------|----------------------------|

E|----------------------------|----------------------------|----------------------------|
B|----------------------------|-15----15----13-----13------|-13----13----15-----15------|
G|-10----10----12-----12--%---|------------------------%---|------------------------%---|
D|------------------------%---|------------------------%---|------------------------%---|
A|----------------------------|----------------------------|----------------------------|
E|----------------------------|----------------------------|----------------------------|

E|----------------------------|----------------------------|----------------------------|
B|-11----11----13-----13------|----------------------------|-15----15----13-----13------|
G|------------------------%---|-10----10----12-----12--%---|------------------------%---|
D|------------------------%---|------------------------%---|------------------------%---|
A|----------------------------|----------------------------|----------------------------|
E|----------------------------|----------------------------|----------------------------|

E|----------------------------|----------------------------|----------------------------|
B|-13----13----15-----15------|-11----11----13-----13------|----------------------------|
G|------------------------%---|------------------------%---|-10----10----12-----12--%---|
D|------------------------%---|------------------------%---|------------------------%---|
A|----------------------------|----------------------------|----------------------------|
E|----------------------------|----------------------------|----------------------------|

E|----------------------------|----------------------------|----------------------------|
B|-15----15----13-----13------|-13----13----15-----15------|-11----11----13-----13------|
G|------------------------%---|------------------------%---|------------------------%---|
D|------------------------%---|------------------------%---|------------------------%---|
A|----------------------------|----------------------------|----------------------------|
E|----------------------------|----------------------------|----------------------------|

E|-------------------------|----------------------------------------------|-----------------------------------------------------|
B|-------------------------|----------------------------------------------|-----------------------------------------------------|
G|-10----10----12-----12---|-12-------------------------------------------|-----------------------------------------------------|
D|-------------------------|-------7------------7------------7------------|-7------------7------------7------------7------------|
A|-------------------------|-------5----5---5---5----5---5---5----5---5---|-5----5---5---5----5---5---5----5---5---5----5---5---|
E|-------------------------|----------------------------------------------|-----------------------------------------------------|

E|-----------------------------------------------------|-----------------------------------------------------|
B|-----------------------------------------------------|-----------------------------------------------------|
G|-----------------------------------------------------|-----------------------------------------------------|
D|-7------------7------------7------------7------------|-7------------7------------7------------7------------|
A|-5----5---5---5----5---5---5----5---5---5----5---5---|-5----5---5---5----5---5---5----5---5---5----5---5---|
E|-----------------------------------------------------|-----------------------------------------------------|

E|-----------------------------------------------------|-----------------------------------------------------|
B|-----------------------------------------------------|-----------------------------------------------------|
G|-----------------------------------------------------|-----------------------------------------------------|
D|-7------------5------------5------------5------------|-5------------5----5---5---4----4---4---5----5---5---|
A|-5----5---5---3----3---3---3----3---3---3----3---3---|-3----3---3---3----3---3---2----2---2---3----3---3---|
E|-----------------------------------------------------|-----------------------------------------------------|

E|-----------------------------------------------------|-----------------------------------------------------|
B|-----------------------------------------------------|-----------------------------------------------------|
G|-----------------------------------------------------|-----------------------------------------------------|
D|-4----4---4---7------------7------------7------------|-7------------7------------7------------7------------|
A|-2----2---2---5----5---5---5----5---5---5----5---5---|-5----5---5---5----5---5---5----5---5---5----5---5---|
E|-----------------------------------------------------|-----------------------------------------------------|

E|-----------------------------------------------------|-----------------------------------------------------|
B|-----------------------------------------------------|-----------------------------------------------------|
G|-----------------------------------------------------|-----------------------------------------------------|
D|-7------------5------------5------------5------------|-5------------5----5---5---4----4---4---5----5---5---|
A|-5----5---5---3----3---3---3----3---3---3----3---3---|-3----3---3---3----3---3---2----2---2---3----3---3---|
E|-----------------------------------------------------|-----------------------------------------------------|

E|----------------------|-------------------|-------------------|-------------------|
B|----------------------|-------------------|-------------------|-------------------|
G|----------4---2-------|-2-----%---5-------|-5-----%-----------|-------%---7-------|
D|-4----4---4---2-------|-2-----%---5-------|-5-----%---3-------|-3-----%---7-------|
A|-2----2---2---0-------|-0---------3-------|-3---------3-------|-3---------5-------|
E|----------------------|-------------------|-----------1-------|-1-----------------|

E|-----------------------------------------|--------------------------------------------------|
B|-----------------------------------------|--------------------------------------------------|
G|-7-----%---7-----%---7-----%---7-----%---|-7-----%------------------------------------------|
D|-7-----%---7-----%---7-----%---7-----%---|-7-----%------------------------------------------|
A|-5---------5---------5---------5---------|-5---------5------------5------------5------------|
E|-----------------------------------------|-----------3----3---3---3----3---3---3----3---3---|

E|-----------------------------------------------------|-----------------------------------------------------|
B|-----------------------------------------------------|-----------------------------------------------------|
G|-----------------------------------------------------|-----------------------------------------------------|
D|-----------------------------------------------------|-----------------------------------------------------|
A|-5------------5------------5------------5------------|-5------------3------------3------------3------------|
E|-3----3---3---3----3---3---3----3---3---3----3---3---|-3----3---3---1----1---1---1----1---1---1----1---1---|

E|-----------------------------------------------------|-----------------------------------------------------|
B|-----------------------------------------------------|-----------------------------------------------------|
G|-----------------------------------------------------|-----------------------------------------------------|
D|-----------------------------------------------------|--------------5------------5------------5------------|
A|-3------------3------------3------------3------------|-3------------3----3---3---3----3---3---3----3---3---|
E|-1----1---1---1----1---1---1----1---1---1----1---1---|-1----1---1------------------------------------------|

E|-----------------------------------------------------|-----------------------------------------------------|
B|-----------------------------------------------------|-----------------------------------------------------|
G|-----------------------------------------------------|-----------------------------------------------------|
D|-5------------5------------5------------5------------|-5---------------------------------------------------|
A|-3----3---3---3----3---3---3----3---3---3----3---3---|-3----3---3---5------------5------------5------------|
E|-----------------------------------------------------|--------------3----3---3---3----3---3---3----3---3---|

E|-----------------------------------------------------|-----------------------------------------------------|
B|-----------------------------------------------------|-----------------------------------------------------|
G|-----------------------------------------------------|-----------------------------------------------------|
D|--------------5------------2------------3------------|-4---------------------------------------------------|
A|-5------------5------------2------------3------------|-4------------5------------5------------5------------|
E|-3----3---3---3----3---3---0----0---0---1----1---1---|-2----2---2---3----3---3---3----3---3---3----3---3---|

E|-----------------------------------------------------|-----------------------------------------------------|
B|-----------------------------------------------------|-----------------------------------------------------|
G|-----------------------------------------------------|-----------------------------------------------------|
D|-----------------------------------------------------|-----------------------------------------------------|
A|-5------------5------------5------------5------------|-5------------3------------3------------3------------|
E|-3----3---3---3----3---3---3----3---3---3----3---3---|-3----3---3---1----1---1---1----1---1---1----1---1---|

E|-----------------------------------------------------|-----------------------------------------------------|
B|-----------------------------------------------------|-----------------------------------------------------|
G|-----------------------------------------------------|-----------------------------------------------------|
D|-----------------------------------------------------|--------------5------------5------------5------------|
A|-3------------3------------3------------3------------|-3------------3----3---3---3----3---3---3----3---3---|
E|-1----1---1---1----1---1---1----1---1---1----1---1---|-1----1---1------------------------------------------|

E|-----------------------------------------------------|----------------------|---------|
B|-----------------------------------------------------|----------------------|---------|
G|-----------------------------------------------------|----------------------|---------|
D|-5------------5------------5------------5------------|-5------------5-------|-5-------|
A|-3----3---3---3----3---3---3----3---3---3----3---3---|-3----3---3---5-------|-5-------|
E|-----------------------------------------------------|--------------3-------|-3-------|

E|--------------------------------------------------|-----------------------------------------------------|
B|--------------------------------------------------|-----------------------------------------------------|
G|-------%------------------------------------------|-----------------------------------------------------|
D|-5-----%---7------------7------------7------------|-7------------7------------7------------7------------|
A|-5---------5----5---5---5----5---5---5----5---5---|-5----5---5---5----5---5---5----5---5---5----5---5---|
E|-3------------------------------------------------|-----------------------------------------------------|

E|-----------------------------------------------------|-----------------------------------------------------|
B|-----------------------------------------------------|-----------------------------------------------------|
G|-----------------------------------------------------|-----------------------------------------------------|
D|-7------------5------------5------------5------------|-5------------5----5---5---4----4---4---5----5---5---|
A|-5----5---5---3----3---3---3----3---3---3----3---3---|-3----3---3---3----3---3---2----2---2---3----3---3---|
E|-----------------------------------------------------|-----------------------------------------------------|

E|-----------------------------------------------------|-----------------------------------------------------|
B|-----------------------------------------------------|-----------------------------------------------------|
G|-----------------------------------------------------|-----------------------------------------------------|
D|-4----4---4---7------------7------------7------------|-7------------7------------7------------7------------|
A|-2----2---2---5----5---5---5----5---5---5----5---5---|-5----5---5---5----5---5---5----5---5---5----5---5---|
E|-----------------------------------------------------|-----------------------------------------------------|

E|-----------------------------------------------------|-----------------------------------------------------|
B|-----------------------------------------------------|-----------------------------------------------------|
G|-----------------------------------------------------|-----------------------------------------------------|
D|-7------------5------------5------------5------------|-5------------5----5---5---4----4---4---5----5---5---|
A|-5----5---5---3----3---3---3----3---3---3----3---3---|-3----3---3---3----3---3---2----2---2---3----3---3---|
E|-----------------------------------------------------|-----------------------------------------------------|

E|----------------------|-------------------|-------------------|-------------------|
B|----------------------|-------------------|-------------------|-------------------|
G|--------------2-------|-2-----%---5-------|-5-----%-----------|-------%---7-------|
D|-4----4---4---2-------|-2-----%---5-------|-5-----%---3-------|-3-----%---7-------|
A|-2----2---2---0-------|-0---------3-------|-3---------3-------|-3---------5-------|
E|----------------------|-------------------|-----------1-------|-1-----------------|

E|-----------------------------------------|--------------------------------------------------|
B|-----------------------------------------|--------------------------------------------------|
G|-7-----%---7-----%---7-----%---7-----%---|-7-----%------------------------------------------|
D|-7-----%---7-----%---7-----%---7-----%---|-7-----%------------------------------------------|
A|-5---------5---------5---------5---------|-5---------5------------5------------5------------|
E|-----------------------------------------|-----------3----3---3---3----3---3---3----3---3---|

E|-----------------------------------------------------|-----------------------------------------------------|
B|-----------------------------------------------------|-----------------------------------------------------|
G|-----------------------------------------------------|-----------------------------------------------------|
D|-----------------------------------------------------|-----------------------------------------------------|
A|-5------------5------------5------------5------------|-5------------3------------3------------3------------|
E|-3----3---3---3----3---3---3----3---3---3----3---3---|-3----3---3---1----1---1---1----1---1---1----1---1---|

E|-----------------------------------------------------|-----------------------------------------------------|
B|-----------------------------------------------------|-----------------------------------------------------|
G|-----------------------------------------------------|-----------------------------------------------------|
D|-----------------------------------------------------|--------------5------------5------------5------------|
A|-3------------3------------3------------3------------|-3------------3----3---3---3----3---3---3----3---3---|
E|-1----1---1---1----1---1---1----1---1---1----1---1---|-1----1---1------------------------------------------|

E|-----------------------------------------------------|-----------------------------------------------------|
B|-----------------------------------------------------|-----------------------------------------------------|
G|-----------------------------------------------------|-----------------------------------------------------|
D|-5------------5------------5------------5------------|-5---------------------------------------------------|
A|-3----3---3---3----3---3---3----3---3---3----3---3---|-3----3---3---5------------5------------5------------|
E|-----------------------------------------------------|--------------3----3---3---3----3---3---3----3---3---|

E|-----------------------------------------------------|-----------------------------------------------------|
B|-----------------------------------------------------|-----------------------------------------------------|
G|-----------------------------------------------------|-----------------------------------------------------|
D|--------------5------------2------------3------------|-4---------------------------------------------------|
A|-5------------5------------2------------3------------|-4------------5------------5------------5------------|
E|-3----3---3---3----3---3---0----0---0---1----1---1---|-2----2---2---3----3---3---3----3---3---3----3---3---|

E|-----------------------------------------------------|-----------------------------------------------------|
B|-----------------------------------------------------|-----------------------------------------------------|
G|-----------------------------------------------------|-----------------------------------------------------|
D|-----------------------------------------------------|-----------------------------------------------------|
A|-5------------5------------5------------5------------|-5------------3------------3------------3------------|
E|-3----3---3---3----3---3---3----3---3---3----3---3---|-3----3---3---1----1---1---1----1---1---1----1---1---|

E|-----------------------------------------------------|-----------------------------------------------------|
B|-----------------------------------------------------|-----------------------------------------------------|
G|-----------------------------------------------------|-----------------------------------------------------|
D|-----------------------------------------------------|--------------5------------5------------5------------|
A|-3------------3------------3------------3------------|-3------------3----3---3---3----3---3---3----3---3---|
E|-1----1---1---1----1---1---1----1---1---1----1---1---|-1----1---1------------------------------------------|

E|-----------------------------------------------------|----------------------|------------------------|
B|-----------------------------------------------------|----------------------|------------------------|
G|-----------------------------------------------------|----------------------|--------------%---%-----|
D|-5------------5------------5------------5------------|-5------------5-------|-5------5-----%---%-----|
A|-3----3---3---3----3---3---3----3---3---3----3---3---|-3----3---3---5-------|-5------5---------------|
E|-----------------------------------------------------|--------------3-------|-3------3---------------|

E|---------|---------|---------|---------|---------|---------|---------|---------|---------|
B|---------|---------|---------|---------|---------|---------|---------|---------|---------|
G|-%-------|-%-------|-%-------|-%-------|-%-------|-%-------|-%-------|-%-------|-%-------|
D|-%-------|-%-------|-%-------|-%-------|-%-------|-%-------|-%-------|-%-------|-%-------|
A|---------|---------|---------|---------|---------|---------|---------|---------|---------|
E|---------|---------|---------|---------|---------|---------|---------|---------|---------|

E|---------|---------|---------|---------|---------|---------|---------|-------------------------------------------|
B|---------|---------|---------|---------|---------|---------|---------|-------------------------------------------|
G|-%-------|-%-------|-%-------|-%-------|-%-------|-%-------|-%-------|-%-----9-----------------9-----------------|
D|-%-------|-%-------|-%-------|-%-------|-%-------|-%-------|-%-------|-%-----7-----------------7-----------------|
A|---------|---------|---------|---------|---------|---------|---------|------------0---0---0---------0---0---0----|
E|---------|---------|---------|---------|---------|---------|---------|-------------------------------------------|

E|-----------------------------------------------|-----------------------------------------------|
B|-----------------------------------------------|-----------------------------------------------|
G|-9---------11----------------11----------------|-11--------12----------------12----------------|
D|-7---------9-----------------9-----------------|-9---------10----------------10----------------|
A|------0---------0---0---0---------0---0---0----|------0---------0---0---0---------0---0---0----|
E|-----------------------------------------------|-----------------------------------------------|

E|-----------------------------------------------|-----------------------------------------------|
B|-----------------------------------------------|-----------------------------------------------|
G|-12--------14----------------14----------------|-14--------9-----------------9-----------------|
D|-10--------12----------------12----------------|-12--------7-----------------7-----------------|
A|------0---------0---0---0---------0---0---0----|------0---------0---0---0---------0---0---0----|
E|-----------------------------------------------|-----------------------------------------------|

E|-----------------------------------------------|-----------------------------------------------|
B|-----------------------------------------------|-----------------------------------------------|
G|-9---------11----------------11----------------|-11--------12----------------12----------------|
D|-7---------9-----------------9-----------------|-9---------10----------------10----------------|
A|------0---------0---0---0---------0---0---0----|------0---------0---0---0---------0---0---0----|
E|-----------------------------------------------|-----------------------------------------------|

E|-----------------------------------------------|-----------------------------------------------|
B|-----------------------------------------------|-----------------------------------------------|
G|-12--------14----------------14----------------|-14--------9-----------------9-----------------|
D|-10--------12----------------12----------------|-12--------7-----------------7-----------------|
A|------0---------0---0---0---------0---0---0----|------0---------0---0---0---------0---0---0----|
E|-----------------------------------------------|-----------------------------------------------|

E|-----------------------------------------------|-----------------------------------------------|
B|-----------------------------------------------|-----------------------------------------------|
G|-9---------11----------------11----------------|-11--------12----------------12----------------|
D|-7---------9-----------------9-----------------|-9---------10----------------10----------------|
A|------0---------0---0---0---------0---0---0----|------0---------0---0---0---------0---0---0----|
E|-----------------------------------------------|-----------------------------------------------|

E|-----------------------------------------------|-----------------------------------------------|
B|-----------------------------------------------|-----------------------------------------------|
G|-12--------14----------------14----------------|-14--------9-----------------9-----------------|
D|-10--------12----------------12----------------|-12--------7-----------------7-----------------|
A|------0---------0---0---0---------0---0---0----|------0---------0---0---0---------0---0---0----|
E|-----------------------------------------------|-----------------------------------------------|

E|-----------------------------------------------|-----------------------------------------------|
B|-----------------------------------------------|-----------------------------------------------|
G|-9---------11----------------11----------------|-11--------12----------------12----------------|
D|-7---------9-----------------9-----------------|-9---------10----------------10----------------|
A|------0---------0---0---0---------0---0---0----|------0---------0---0---0---------0---0---0----|
E|-----------------------------------------------|-----------------------------------------------|

E|-----------------------------------------------|--------------------------------------------------|
B|-----------------------------------------------|--------------------------------------------------|
G|-12--------14----------------14----------------|-14-----------------------------------------------|
D|-10--------12----------------12----------------|-12-----------------------------------------------|
A|------0---------0---0---0---------0---0---0----|------0----5------------5------------5------------|
E|-----------------------------------------------|-----------3----3---3---3----3---3---3----3---3---|

E|-----------------------------------------------------|-----------------------------------------------------|
B|-----------------------------------------------------|-----------------------------------------------------|
G|-----------------------------------------------------|-----------------------------------------------------|
D|-----------------------------------------------------|-----------------------------------------------------|
A|-5------------5------------5------------5------------|-5------------3------------3------------3------------|
E|-3----3---3---3----3---3---3----3---3---3----3---3---|-3----3---3---1----1---1---1----1---1---1----1---1---|

E|-----------------------------------------------------|-----------------------------------------------------|
B|-----------------------------------------------------|-----------------------------------------------------|
G|-----------------------------------------------------|-----------------------------------------------------|
D|-----------------------------------------------------|--------------5------------5------------5------------|
A|-3------------3------------3------------3------------|-3------------3----3---3---3----3---3---3----3---3---|
E|-1----1---1---1----1---1---1----1---1---1----1---1---|-1----1---1------------------------------------------|

E|-----------------------------------------------------|-----------------------------------------------------|
B|-----------------------------------------------------|-----------------------------------------------------|
G|-----------------------------------------------------|-----------------------------------------------------|
D|-5------------5------------5------------5------------|-5---------------------------------------------------|
A|-3----3---3---3----3---3---3----3---3---3----3---3---|-3----3---3---5------------5------------5------------|
E|-----------------------------------------------------|--------------3----3---3---3----3---3---3----3---3---|

E|-----------------------------------------------------|-----------------------------------------------------|
B|-----------------------------------------------------|-----------------------------------------------------|
G|-----------------------------------------------------|-----------------------------------------------------|
D|--------------5------------2------------3------------|-4---------------------------------------------------|
A|-5------------5------------2------------3------------|-4------------5------------5------------5------------|
E|-3----3---3---3----3---3---0----0---0---1----1---1---|-2----2---2---3----3---3---3----3---3---3----3---3---|

E|-----------------------------------------------------|-----------------------------------------------------|
B|-----------------------------------------------------|-----------------------------------------------------|
G|-----------------------------------------------------|-----------------------------------------------------|
D|-----------------------------------------------------|-----------------------------------------------------|
A|-5------------5------------5------------5------------|-5------------3------------3------------3------------|
E|-3----3---3---3----3---3---3----3---3---3----3---3---|-3----3---3---1----1---1---1----1---1---1----1---1---|

E|-----------------------------------------------------|-----------------------------------------------------|
B|-----------------------------------------------------|-----------------------------------------------------|
G|-----------------------------------------------------|-----------------------------------------------------|
D|-----------------------------------------------------|--------------5------------5------------5------------|
A|-3------------3------------3------------3------------|-3------------3----3---3---3----3---3---3----3---3---|
E|-1----1---1---1----1---1---1----1---1---1----1---1---|-1----1---1------------------------------------------|

E|-----------------------------------------------------|----------------------|---------|
B|-----------------------------------------------------|----------------------|---------|
G|-----------------------------------------------------|----------------------|---------|
D|-5------------5------------5------------5------------|-5------------5-------|-5-------|
A|-3----3---3---3----3---3---3----3---3---3----3---3---|-3----3---3---5-------|-5-------|
E|-----------------------------------------------------|--------------3-------|-3-------|

E|--------------------------------------------------|-----------------------------------------------------|
B|--------------------------------------------------|-----------------------------------------------------|
G|-------%------------------------------------------|-----------------------------------------------------|
D|-5-----%------------------------------------------|-----------------------------------------------------|
A|-5---------5------------5------------5------------|-5------------5------------5------------5------------|
E|-3---------3----3---3---3----3---3---3----3---3---|-3----3---3---3----3---3---3----3---3---3----3---3---|

E|-----------------------------------------------------|-----------------------------------------------------|
B|-----------------------------------------------------|-----------------------------------------------------|
G|-----------------------------------------------------|-----------------------------------------------------|
D|-----------------------------------------------------|-----------------------------------------------------|
A|-5------------3------------3------------3------------|-3------------3------------3------------3------------|
E|-3----3---3---1----1---1---1----1---1---1----1---1---|-1----1---1---1----1---1---1----1---1---1----1---1---|

E|-----------------------------------------------------|-----------------------------------------------------|
B|-----------------------------------------------------|-----------------------------------------------------|
G|-----------------------------------------------------|-----------------------------------------------------|
D|--------------5------------5------------5------------|-5------------5------------5------------5------------|
A|-3------------3----3---3---3----3---3---3----3---3---|-3----3---3---3----3---3---3----3---3---3----3---3---|
E|-1----1---1------------------------------------------|-----------------------------------------------------|

E|-----------------------------------------------------|-----------------------------------------------------|
B|-----------------------------------------------------|-----------------------------------------------------|
G|-----------------------------------------------------|-----------------------------------------------------|
D|-5---------------------------------------------------|--------------5------------2------------3----3---3---|
A|-3----3---3---5------------5------------5------------|-5------------5------------2------------3----3---3---|
E|--------------3----3---3---3----3---3---3----3---3---|-3----3---3---3----3---3---0----0---0---1----1---1---|

E|-----------------------------------------------------|-----------------------------------------------------|
B|-----------------------------------------------------|-----------------------------------------------------|
G|-----------------------------------------------------|-----------------------------------------------------|
D|-4---------------------------------------------------|-----------------------------------------------------|
A|-4------------5------------5------------5------------|-5------------5------------5------------5------------|
E|-2----2---2---3----3---3---3----3---3---3----3---3---|-3----3---3---3----3---3---3----3---3---3----3---3---|

E|-----------------------------------------------------|-----------------------------------------------------|
B|-----------------------------------------------------|-----------------------------------------------------|
G|-----------------------------------------------------|-----------------------------------------------------|
D|-----------------------------------------------------|-----------------------------------------------------|
A|-5------------3------------3------------3------------|-3------------3------------3------------3------------|
E|-3----3---3---1----1---1---1----1---1---1----1---1---|-1----1---1---1----1---1---1----1---1---1----1---1---|

E|----------------------|------------------------|-------------------|-----------------------------------------------------------|
B|----------------------|------------------------|-------------------|-----------------------------------------------------------|
G|--------------5-------|-5------5-----%---4-----|-4-----%-----------|-------%---------------------------------------------------|
D|--------------5-------|-5------5-----%---4-----|-4-----%---5-------|-5-----%---------------------------------------------------|
A|-3------------3-------|-3------3---------2-----|-2---------5-------|-5---------------------------------------------------------|
E|-1----1---1-----------|------------------------|-----------3-------|-3---------3---3---3---3---3---3---3---3---3---3---3---3---|

E|-----------------------------------------------------------------|------------------------------3---|
B|-----------------------------------------------------------------|------------------------------3---|
G|-----------------------------------------------------------------|------------------------------0---|
D|-----------------------------------------------------------------|-----------------5------5---------|
A|-----------------------------------------------------------------|-----------------5------5---------|
E|-3---3---3---3---3---3---3---3---3---3---3---3---3---3---3---3---|-3---3---3---3---3------3---------|

E|-3----------------------|
B|-3----------------------|
G|-0----%----%------%-----|
D|------%----%------%-----|
A|------------------------|
E|------------------------|
Iron Maiden - Run To the Hills (2)
Iron Maiden - Run To the Hills (2).gp3