Iron Maiden - Running Free

Iron Maiden



Title: Running Free
Album: 
Artist: 
Author: Iron Maiden

Track 1: Guitar I
E|---------|---------|---------|---------|---------|---------|---------|---------|---------|
B|---------|---------|---------|---------|---------|---------|---------|---------|---------|
G|-%-------|-%-------|-%-------|-%-------|-%-------|-%-------|-%-------|-%-------|-%-------|
D|-%-------|-%-------|-%-------|-%-------|-%-------|-%-------|-%-------|-%-------|-%-------|
A|---------|---------|---------|---------|---------|---------|---------|---------|---------|
E|---------|---------|---------|---------|---------|---------|---------|---------|---------|

E|---------|---------|-----------------------------------------|---------|-------------------------|
B|---------|---------|-----------------------------------------|---------|-------------------------|
G|-%-------|-%-------|-X----X----------------------------------|-9-------|-9------12---12----11----|
D|-%-------|-%-------|-----------X----X------------------------|-9-------|-9------12---12----11----|
A|---------|---------|---------------------X----X--------------|-7-------|-7------10---10----9-----|
E|---------|---------|-------------------------------X----X----|---------|-------------------------|

E|-------------------|-------------------------------------------|---------|-------------------------|
B|-------------------|-------------------------------------------|---------|-------------------------|
G|-9-------9----X----|-5-----X----X----X----7-----X----X----X----|-9-------|-9------12---12----11----|
D|-9-------9----X----|-5-----X----X----X----7-----X----X----X----|-9-------|-9------12---12----11----|
A|-7-------7----X----|-3-----X----X----X----5-----X----X----X----|-7-------|-7------10---10----9-----|
E|-------------------|-------------------------------------------|---------|-------------------------|

E|-------------------|-------------------------------------------|-------------------------------------------|
B|-------------------|-------------------------------------------|-------------------------------------------|
G|-9-------9----X----|-5-----X----X----X----7-----X----X----X----|-9-----X----X----X----9-----X----X----X----|
D|-9-------9----X----|-5-----X----X----X----7-----X----X----X----|-9-----X----X----X----9-----X----X----X----|
A|-7-------7----X----|-3-----X----X----X----5-----X----X----X----|-7-----X----X----X----7-----X----X----X----|
E|-------------------|-------------------------------------------|-------------------------------------------|

E|-------------------------------------------|-------------------------------------------|
B|-------------------------------------------|-------------------------------------------|
G|-5-----X----X----X----7-----X----X----X----|-9-----X----X----X----9-----X----X----X----|
D|-5-----X----X----X----7-----X----X----X----|-9-----X----X----X----9-----X----X----X----|
A|-3-----X----X----X----5-----X----X----X----|-7-----X----X----X----7-----X----X----X----|
E|-------------------------------------------|-------------------------------------------|

E|-------------------------------------------|-------------------------------------------|
B|-------------------------------------------|-------------------------------------------|
G|-------X----X----X----------X----X----X----|-9-----X----X----X----9-----X----X----X----|
D|-5-----X----X----X----7-----X----X----X----|-9-----X----X----X----9-----X----X----X----|
A|-5-----X----X----X----7-----X----X----X----|-7-----X----X----X----7-----X----X----X----|
E|-3--------------------5--------------------|-------------------------------------------|

E|-------------------------------------------|-------------------------------------------|
B|-------------------------------------------|-------------------------------------------|
G|-5-----X----X----X----7-----X----X----X----|-9-----X----X----X----9-----X----X----X----|
D|-5-----X----X----X----7-----X----X----X----|-9-----X----X----X----9-----X----X----X----|
A|-3-----X----X----X----5-----X----X----X----|-7-----X----X----X----7-----X----X----X----|
E|-------------------------------------------|-------------------------------------------|

E|-------------------------------------------|-------------------|-----------------------------|
B|-------------------------------------------|-------------------|-----------------------------|
G|-------X----X----X----------X----X----X----|-9-------9----12---|-12-----9----9-----7----9----|
D|-5-----X----X----X----7-----X----X----X----|-9-------9----12---|-12-----9----9-----7----9----|
A|-5-----X----X----X----7-----X----X----X----|-7-------7----10---|-10-----7----7-----5----7----|
E|-3--------------------5--------------------|-------------------|-----------------------------|

E|--------------------------------------|-------------------------------------------|
B|--------------------------------------|-------------------------------------------|
G|-9-----X----9----9-----X----X----X----|-5-----X----X----X----7-----X----X----X----|
D|-9-----X----9----9-----X----X----X----|-5-----X----X----X----7-----X----X----X----|
A|-7-----X----7----7-----X----X----X----|-3-----X----X----X----5-----X----X----X----|
E|--------------------------------------|-------------------------------------------|

E|-------------------|-----------------------------|--------------------------------------|
B|-------------------|-----------------------------|--------------------------------------|
G|-9-------9----12---|-12-----9----9-----7----9----|-9-----X----9----9-----X----X----X----|
D|-9-------9----12---|-12-----9----9-----7----9----|-9-----X----9----9-----X----X----X----|
A|-7-------7----10---|-10-----7----7-----5----7----|-7-----X----7----7-----X----X----X----|
E|-------------------|-----------------------------|--------------------------------------|

E|-------------------------------------------|-------------------------------------------|
B|-------------------------------------------|-------------------------------------------|
G|-5-----X----X----X----7-----X----X----X----|-9-----X----X----X----9-----X----X----X----|
D|-5-----X----X----X----7-----X----X----X----|-9-----X----X----X----9-----X----X----X----|
A|-3-----X----X----X----5-----X----X----X----|-7-----X----X----X----7-----X----X----X----|
E|-------------------------------------------|-------------------------------------------|

E|-------------------------------------------|-------------------------------------------|
B|-------------------------------------------|-------------------------------------------|
G|-5-----X----X----X----7-----X----X----X----|-9-----X----X----X----9-----X----X----X----|
D|-5-----X----X----X----7-----X----X----X----|-9-----X----X----X----9-----X----X----X----|
A|-3-----X----X----X----5-----X----X----X----|-7-----X----X----X----7-----X----X----X----|
E|-------------------------------------------|-------------------------------------------|

E|-------------------------------------------|-------------------------------------------|
B|-------------------------------------------|-------------------------------------------|
G|-------X----X----X----------X----X----X----|-9-----X----X----X----9-----X----X----X----|
D|-5-----X----X----X----7-----X----X----X----|-9-----X----X----X----9-----X----X----X----|
A|-5-----X----X----X----7-----X----X----X----|-7-----X----X----X----7-----X----X----X----|
E|-3--------------------5--------------------|-------------------------------------------|

E|-------------------------------------------|-------------------------------------------|
B|-------------------------------------------|-------------------------------------------|
G|-5-----X----X----X----7-----X----X----X----|-9-----X----X----X----9-----X----X----X----|
D|-5-----X----X----X----7-----X----X----X----|-9-----X----X----X----9-----X----X----X----|
A|-3-----X----X----X----5-----X----X----X----|-7-----X----X----X----7-----X----X----X----|
E|-------------------------------------------|-------------------------------------------|

E|-------------------------------------------|-------------------|-----------------------------|
B|-------------------------------------------|-------------------|-----------------------------|
G|-------X----X----X----------X----X----X----|-9-------9----12---|-12-----9----9-----7----9----|
D|-5-----X----X----X----7-----X----X----X----|-9-------9----12---|-12-----9----9-----7----9----|
A|-5-----X----X----X----7-----X----X----X----|-7-------7----10---|-10-----7----7-----5----7----|
E|-3--------------------5--------------------|-------------------|-----------------------------|

E|--------------------------------------|-------------------------------------------|
B|--------------------------------------|-------------------------------------------|
G|-9-----X----9----9-----X----X----X----|-5-----X----X----X----7-----X----X----X----|
D|-9-----X----9----9-----X----X----X----|-5-----X----X----X----7-----X----X----X----|
A|-7-----X----7----7-----X----X----X----|-3-----X----X----X----5-----X----X----X----|
E|--------------------------------------|-------------------------------------------|

E|-------------------|-----------------------------|--------------------------------------|
B|-------------------|-----------------------------|--------------------------------------|
G|-9-------9----12---|-12-----9----9-----7----9----|-9-----X----9----9-----X----X----X----|
D|-9-------9----12---|-12-----9----9-----7----9----|-9-----X----9----9-----X----X----X----|
A|-7-------7----10---|-10-----7----7-----5----7----|-7-----X----7----7-----X----X----X----|
E|-------------------|-----------------------------|--------------------------------------|

E|-----------------------------|-9----7----5----7----5----3----5----3----2----3----2----0----|
B|-----------------------------|-------------------------------------------------------------|
G|-5-----X----X----X----7------|-------------------------------------------------------------|
D|-5-----X----X----X----7------|-------------------------------------------------------------|
A|-3-----X----X----X----5------|-------------------------------------------------------------|
E|-----------------------------|-------------------------------------------------------------|

E|-2----0---------0-----------------------------------|-9----7----5----7----5----3----5----3----2----3----2----0----|
B|-----------3---------3----2----3----2----0----------|-------------------------------------------------------------|
G|----------------------------------------------2-----|-------------------------------------------------------------|
D|----------------------------------------------------|-------------------------------------------------------------|
A|----------------------------------------------------|-------------------------------------------------------------|
E|----------------------------------------------------|-------------------------------------------------------------|

E|-2----0---------0-----------------------------------|-17---15---14---15---14---12---14---12--------12-------------|
B|-----------3---------3----2----3----2----0----------|-----------------------------------------15--------15---14---|
G|----------------------------------------------2-----|-------------------------------------------------------------|
D|----------------------------------------------------|-------------------------------------------------------------|
A|----------------------------------------------------|-------------------------------------------------------------|
E|----------------------------------------------------|-------------------------------------------------------------|

E|----------------------------------------------------|-17---15---14---15---14---12---14---12--------12-------------|
B|-15---14---12---14---12--------12-------------------|-----------------------------------------15--------15---14---|
G|--------------------------14--------14---12---11----|-------------------------------------------------------------|
D|----------------------------------------------------|-------------------------------------------------------------|
A|----------------------------------------------------|-------------------------------------------------------------|
E|----------------------------------------------------|-------------------------------------------------------------|

E|----------------------------------------------------|-------------------------------------------|
B|-15---14---12---14---12--------12-------------------|-12-------------------12-------------------|
G|--------------------------14--------14---12---11----|------14---12---11---------14---12---11----|
D|----------------------------------------------------|-------------------------------------------|
A|----------------------------------------------------|-------------------------------------------|
E|----------------------------------------------------|-------------------------------------------|

E|----------------------------------------------------|-------------------------------------|
B|-12-------------12-------------12-------------------|-------------------------------------|
G|------14---12--------14---12--------14---12---11----|-------------------------------9-----|
D|----------------------------------------------------|-------------------------------9-----|
A|----------------------------------------------------|-------------------------------7-----|
E|----------------------------------------------------|-0----0----0----0----0----0----0-----|

E|-------------------------------------|-------------------------------------|----------------------------------------------------|
B|-------------------------------------|-------------------------------------|----------------------------------------------12----|
G|-------------------------------9-----|-------------------------------9-----|-12---12---12---11---12---11------------------------|
D|-------------------------------9-----|-------------------------------9-----|-------------------------------12---12---12---------|
A|-------------------------------7-----|-------------------------------7-----|----------------------------------------------------|
E|-0----0----0----0----0----0----0-----|-0----0----0----0----0----0----0-----|----------------------------------------------------|

E|-----------------------------------------|---------------------------------|-------------------|
B|-----------------------------------------|---------------------------------|-------------------|
G|-----------9----9--------------9----9----|-9-----%----5----5----7-----X----|-9-------9----12---|
D|-----------9----9--------------9----9----|-9-----%----5----5----7-----X----|-9-------9----12---|
A|-----------7----7--------------7----7----|-7----------3----3----5-----X----|-7-------7----10---|
E|-0----0----0----0----0----0----0----0----|-0-------------------------------|-------------------|

E|-----------------------------|--------------------------------------|-------------------------------------------|
B|-----------------------------|--------------------------------------|-------------------------------------------|
G|-12-----9----9-----7----9----|-9-----X----9----9-----X----X----X----|-5-----X----X----X----7-----X----X----X----|
D|-12-----9----9-----7----9----|-9-----X----9----9-----X----X----X----|-5-----X----X----X----7-----X----X----X----|
A|-10-----7----7-----5----7----|-7-----X----7----7-----X----X----X----|-3-----X----X----X----5-----X----X----X----|
E|-----------------------------|--------------------------------------|-------------------------------------------|

E|-------------------|-----------------------------|--------------------------------------|
B|-------------------|-----------------------------|--------------------------------------|
G|-9-------9----12---|-12-----9----9-----7----9----|-9-----X----9----9-----X----X----X----|
D|-9-------9----12---|-12-----9----9-----7----9----|-9-----X----9----9-----X----X----X----|
A|-7-------7----10---|-10-----7----7-----5----7----|-7-----X----7----7-----X----X----X----|
E|-------------------|-----------------------------|--------------------------------------|

E|-------------------------------------------|----------------------------|----------------------------|
B|-------------------------------------------|----------------------------|----------------------------|
G|-5-----X----X----X----7-----X----X----X----|-9----9----%------%----7----|-9----9----%------%----7----|
D|-5-----X----X----X----7-----X----X----X----|-9----9----%------%----7----|-9----9----%------%----7----|
A|-3-----X----X----X----5-----X----X----X----|-7----7----------------5----|-7----7----------------5----|
E|-------------------------------------------|----------------------------|----------------------------|

E|------------------------|---------------------------------|----------------------------|
B|------------------------|---------------------------------|----------------------------|
G|-9----9----%-----%------|-5----5-----5----7----7-----7----|-9----9----%------%----7----|
D|-9----9----%-----%------|-5----5-----5----7----7-----7----|-9----9----%------%----7----|
A|-7----7-----------------|-3----3-----3----5----5-----5----|-7----7----------------5----|
E|------------------------|---------------------------------|----------------------------|

E|----------------------------|------------------------|---------------------------------|
B|----------------------------|------------------------|---------------------------------|
G|-9----9----%------%----7----|-9----9----%-----%------|-5----5-----5----7----7-----7----|
D|-9----9----%------%----7----|-9----9----%-----%------|-5----5-----5----7----7-----7----|
A|-7----7----------------5----|-7----7-----------------|-3----3-----3----5----5-----5----|
E|----------------------------|------------------------|---------------------------------|

E|------------------------------------------|------------------------------------------|
B|----------------10---12---10--------10----|----------------10---12---10--------10----|
G|-9----9----%-------------------12---------|-9----9----%-------------------12---------|
D|-9----9----%------------------------------|-9----9----%------------------------------|
A|-7----7-----------------------------------|-7----7-----------------------------------|
E|------------------------------------------|------------------------------------------|

E|------------------------------------------|---------------------------------|------------------------------------------|
B|----------------10---12---10--------10----|---------------------------------|----------------10---12---10--------10----|
G|-9----9----%-------------------12---------|-5----5-----5----7----7-----7----|-9----9----%-------------------12---------|
D|-9----9----%------------------------------|-5----5-----5----7----7-----7----|-9----9----%------------------------------|
A|-7----7-----------------------------------|-3----3-----3----5----5-----5----|-7----7-----------------------------------|
E|------------------------------------------|---------------------------------|------------------------------------------|

E|------------------------------------------|------------------------------------------|
B|----------------10---12---10--------10----|----------------10---12---10--------10----|
G|-9----9----%-------------------12---------|-9----9----%-------------------12---------|
D|-9----9----%------------------------------|-9----9----%------------------------------|
A|-7----7-----------------------------------|-7----7-----------------------------------|
E|------------------------------------------|------------------------------------------|

E|---------------------------------|-------------------------------------------|-------------------------------------------|
B|---------------------------------|-------------------------------------------|-------------------------------------------|
G|-5----5-----5----7----7-----7----|-9-----X----X----X----9-----X----X----X----|-5-----X----X----X----7-----X----X----X----|
D|-5----5-----5----7----7-----7----|-9-----X----X----X----9-----X----X----X----|-5-----X----X----X----7-----X----X----X----|
A|-3----3-----3----5----5-----5----|-7-----X----X----X----7-----X----X----X----|-3-----X----X----X----5-----X----X----X----|
E|---------------------------------|-------------------------------------------|-------------------------------------------|

E|-------------------------------------------|-------------------------------------------|
B|-------------------------------------------|-------------------------------------------|
G|-9-----X----X----X----9-----X----X----X----|-------X----X----X----------X----X----X----|
D|-9-----X----X----X----9-----X----X----X----|-5-----X----X----X----7-----X----X----X----|
A|-7-----X----X----X----7-----X----X----X----|-5-----X----X----X----7-----X----X----X----|
E|-------------------------------------------|-3--------------------5--------------------|

E|-------------------------------------------|-------------------------------------------|
B|-------------------------------------------|-------------------------------------------|
G|-9-----X----X----X----9-----X----X----X----|-5-----X----X----X----7-----X----X----X----|
D|-9-----X----X----X----9-----X----X----X----|-5-----X----X----X----7-----X----X----X----|
A|-7-----X----X----X----7-----X----X----X----|-3-----X----X----X----5-----X----X----X----|
E|-------------------------------------------|-------------------------------------------|

E|-------------------------------------------|-------------------------------------------|
B|-------------------------------------------|-------------------------------------------|
G|-9-----X----X----X----9-----X----X----X----|-------X----X----X----------X----X----X----|
D|-9-----X----X----X----9-----X----X----X----|-5-----X----X----X----7-----X----X----X----|
A|-7-----X----X----X----7-----X----X----X----|-5-----X----X----X----7-----X----X----X----|
E|-------------------------------------------|-3--------------------5--------------------|

E|-------------------|-----------------------------|--------------------------------------|
B|-------------------|-----------------------------|--------------------------------------|
G|-9-------9----12---|-12-----9----9-----7----9----|-9-----X----9----9-----X----X----X----|
D|-9-------9----12---|-12-----9----9-----7----9----|-9-----X----9----9-----X----X----X----|
A|-7-------7----10---|-10-----7----7-----5----7----|-7-----X----7----7-----X----X----X----|
E|-------------------|-----------------------------|--------------------------------------|

E|-------------------------------------------|-------------------|-----------------------------|
B|-------------------------------------------|-------------------|-----------------------------|
G|-5-----X----X----X----7-----X----X----X----|-9-------9----12---|-12-----9----9-----7----9----|
D|-5-----X----X----X----7-----X----X----X----|-9-------9----12---|-12-----9----9-----7----9----|
A|-3-----X----X----X----5-----X----X----X----|-7-------7----10---|-10-----7----7-----5----7----|
E|-------------------------------------------|-------------------|-----------------------------|

E|--------------------------------------|-------------------------------------------|
B|--------------------------------------|-------------------------------------------|
G|-9-----X----9----9-----X----X----X----|-5-----X----X----X----7-----X----X----X----|
D|-9-----X----9----9-----X----X----X----|-5-----X----X----X----7-----X----X----X----|
A|-7-----X----7----7-----X----X----X----|-3-----X----X----X----5-----X----X----X----|
E|--------------------------------------|-------------------------------------------|

E|-------------------|-------------------|-------------------|-------------------------------------------|
B|-------------------|-------------------|-------------------|-------------------------------------------|
G|-9-------9----12---|-12------12---14---|-14------14---X----|-5-----X----X----X----7-----X----X----X----|
D|-9-------9----12---|-12------12---14---|-14------14---X----|-5-----X----X----X----7-----X----X----X----|
A|-7-------7----10---|-10------10---12---|-12------12---X----|-3-----X----X----X----5-----X----X----X----|
E|-------------------|-------------------|-------------------|-------------------------------------------|

E|-----------------------------|-9----7----5----7----5----3----5----3----2----3----2----0----|
B|-----------------------------|-------------------------------------------------------------|
G|-5-----X----X----X----7------|-------------------------------------------------------------|
D|-5-----X----X----X----7------|-------------------------------------------------------------|
A|-3-----X----X----X----5------|-------------------------------------------------------------|
E|-----------------------------|-------------------------------------------------------------|

E|-2----0---------0--------------------------------------------|-10----10----------10----10----------|
B|-----------3---------3----2----3----2----0----2----0---------|-------------------------------------|
G|--------------------------------------------------------2----|-------------%-----------------%-----|
D|-------------------------------------------------------------|-------------%-----------------%-----|
A|-------------------------------------------------------------|-------------------------------------|
E|-------------------------------------------------------------|-------------------------------------|
Iron Maiden - Running Free
Iron Maiden - Running Free.gp3