Iron Maiden - Running free solo

Iron Maiden



Title: Running free solo
Album: Live After Death
Artist: Iron Maiden
Author: Steve Harris & Paul Di 'Anno

Track 1: Dave
E|-9-----------------------------------------------------------|----------------------------------------------------|
B|------12---10---12---10--------10----------------------------|----------------------------------------------------|
G|--------------------------12--------12---11---12---11---9----|-11---9---------9-----------------------------------|
D|-------------------------------------------------------------|-----------12--------12---11---12---11---9----------|
A|-------------------------------------------------------------|----------------------------------------------12----|
E|-------------------------------------------------------------|----------------------------------------------------|

E|-9-----------------------------------------------------------|----------------------------------------------------|
B|------12---10---12---10--------10----------------------------|----------------------------------------------------|
G|--------------------------12--------12---11---12---11---9----|-11---9---------9-----------------------------------|
D|-------------------------------------------------------------|-----------12--------12---11---12---11---9----------|
A|-------------------------------------------------------------|----------------------------------------------12----|
E|-------------------------------------------------------------|----------------------------------------------------|

E|-17---15---14---15---14--------14----------------------------|----------------------------------------------------|
B|--------------------------17--------17---15---17---15---14---|-15---14--------14----------------------------------|
G|-------------------------------------------------------------|-----------16--------16---14---16---14--------------|
D|-------------------------------------------------------------|-----------------------------------------17---16----|
A|-------------------------------------------------------------|----------------------------------------------------|
E|-------------------------------------------------------------|----------------------------------------------------|

E|-17---15---14---15---14--------14----------------------------|----------------------------------------------------|
B|--------------------------17--------17---15---17---15---14---|-15---14--------14----------------------------------|
G|-------------------------------------------------------------|-----------16--------16---14---16---14--------------|
D|-------------------------------------------------------------|-----------------------------------------17---16----|
A|-------------------------------------------------------------|----------------------------------------------------|
E|-------------------------------------------------------------|----------------------------------------------------|

E|-------------------------------------------|----------------------------------------------------|
B|-------------------------------------------|----------------------------------------------------|
G|-16---14--------------16---14--------------|-16---14--------16---14--------16---14--------------|
D|-----------17---16--------------17---16----|-----------17-------------17-------------17---16----|
A|-------------------------------------------|----------------------------------------------------|
E|-------------------------------------------|----------------------------------------------------|

E|----------------------------------------------------|----------------------------------------------------|
B|----------------------------------------------------|----------------------------------------------------|
G|----------------------------------------------9-----|----------------------------------------------9-----|
D|----------------------------------------------9-----|----------------------------------------------9-----|
A|----------------------------------------------7-----|----------------------------------------------7-----|
E|-0----0----0----0----0----0----0----0----0----0-----|-0----0----0----0----0----0----0----0----0----0-----|

E|----------------------------------------------------|----------------------------------------------------|
B|----------------------------------------------------|----------------------------------------------12----|
G|----------------------------------------------9-----|-12---12---12---11---11---11------------------------|
D|----------------------------------------------9-----|-------------------------------12---12---12---------|
A|----------------------------------------------7-----|----------------------------------------------------|
E|-0----0----0----0----0----0----0----0----0----0-----|----------------------------------------------------|

E|----------------------------------------------------|----------------------------------------------------|
B|----------------------------------------------------|----------------------------------------------------|
G|----------------------------------------------9-----|----------------------------------------------9-----|
D|----------------------------------------------9-----|----------------------------------------------9-----|
A|----------------------------------------------7-----|----------------------------------------------7-----|
E|-0----0----0----0----0----0----0----0----0----0-----|-0----0----0----0----0----0----0----0----0----0-----|

E|----------------------------------------------------|----------------------------------------------------|
B|----------------------------------------------------|----------------------------------------------12----|
G|----------------------------------------------9-----|-12---12---12---11---11---11------------------------|
D|----------------------------------------------9-----|-------------------------------12---12---12---------|
A|----------------------------------------------7-----|----------------------------------------------------|
E|-0----0----0----0----0----0----0----0----0----0-----|----------------------------------------------------|

E|----------------------------------------------------|----------------------------------------------------|
B|----------------------------------------------------|----------------------------------------------------|
G|----------------------------------------------9-----|----------------------------------------------9-----|
D|----------------------------------------------9-----|----------------------------------------------9-----|
A|----------------------------------------------7-----|----------------------------------------------7-----|
E|-0----0----0----0----0----0----0----0----0----0-----|-0----0----0----0----0----0----0----0----0----0-----|

E|----------------------------------------------------|----------------------------------------------------|
B|----------------------------------------------------|----------------------------------------------12----|
G|----------------------------------------------9-----|-12---12---12---11---11---11------------------------|
D|----------------------------------------------9-----|-------------------------------12---12---12---------|
A|----------------------------------------------7-----|----------------------------------------------------|
E|-0----0----0----0----0----0----0----0----0----0-----|----------------------------------------------------|

E|----------------------------------------------------|----------------------------------------------------|
B|----------------------------------------------------|----------------------------------------------------|
G|----------------------------------------------9-----|----------------------------------------------9-----|
D|----------------------------------------------9-----|----------------------------------------------9-----|
A|----------------------------------------------7-----|----------------------------------------------7-----|
E|-0----0----0----0----0----0----0----0----0----0-----|-0----0----0----0----0----0----0----0----0----0-----|
Iron Maiden - Running free solo
Iron Maiden - Running free solo.gp3