Iron Maiden - Sanctuary

Iron Maiden - Sanctuary

Iron Maiden



Title: Sanctuary
Album: A Real Dead One
Artist: Iron Maiden
Author: Iron Maiden

Track 1: Dave (Guitar 1)
E|-----------------------------------------|-----------------------------------------|
B|-3----3----------------------------------|-----------------------------------------|
G|-2----2---------2----2----2--------------|-2----2---------2----2----2--------------|
D|-0----0----5----0----0----0--------------|-0----0----5----0----0----0--------------|
A|-----------3-------------------3----0----|-----------3-------------------3----0----|
E|-----------------------------------------|-----------------------------------------|

E|-------------------------------------|-------------------------------------|-----------------------------------------|
B|----------------3----3---------------|-------------------------------------|-----------------------------------------|
G|-2----2---------2----2---------------|-2----2---------2----2---------------|-2----2---------2----2----2--------------|
D|-0----0----5----0----0---------------|-0----0----5----0----0---------------|-0----0----5----0----0----0--------------|
A|-----------3---------------3----0----|-----------3---------------3----0----|-----------3-------------------3----0----|
E|-------------------------------------|-------------------------------------|-----------------------------------------|

E|-----------------------------------------|-------------------------------------------------|
B|-----------------------------------------|-------------------------------------------------|
G|-2----2---------2----2----2--------------|-2----2-----2----2---4---2---4---2---4---2---4---|
D|-0----0----5----0----0----0--------------|-0----0------------------------------------------|
A|-----------3-------------------3----0----|-------------------------------------------------|
E|-----------------------------------------|-------------------------------------------------|

E|-----------------------------------------------------------------|-----------------------------------------|
B|-----------------------------------------------------------------|-3----3----------------------------------|
G|-2---4---2---4---2---4---2---4---2---4---2---4---2---4---2---4---|-2----2---------2----2----2--------------|
D|-----------------------------------------------------------------|-0----0----5----0----0----0--------------|
A|-----------------------------------------------------------------|-----------3-------------------3----0----|
E|-----------------------------------------------------------------|-----------------------------------------|

E|-----------------------------------------|-----------------------------------------|
B|-----------------------------------------|-3----3----------------------------------|
G|-2----2---------2----2----2--------------|-2----2---------2----2----2--------------|
D|-0----0----5----0----0----0--------------|-0----0----5----0----0----0--------------|
A|-----------3-------------------3----0----|-----------3-------------------3----0----|
E|-----------------------------------------|-----------------------------------------|

E|-----------------------------------------|-----------------------------------------|
B|-----------------------------------------|-3----3----------------------------------|
G|-2----2---------2----2----2--------------|-2----2---------2----2----2--------------|
D|-0----0----5----0----0----0--------------|-0----0----5----0----0----0--------------|
A|-----------3-------------------3----0----|-----------3-------------------3----0----|
E|-----------------------------------------|-----------------------------------------|

E|-----------------------------------------|-----------------------------------------|
B|-----------------------------------------|-3----3----------------------------------|
G|-2----2---------2----2----2--------------|-2----2---------2----2----2--------------|
D|-0----0----5----0----0----0--------------|-0----0----5----0----0----0--------------|
A|-----------3-------------------3----0----|-----------3-------------------3----0----|
E|-----------------------------------------|-----------------------------------------|

E|-----------------------------------------|------------------------|---------|-----------------------------------------|
B|-----------------------------------------|------------------0-----|-0-------|-----------------------------------------|
G|-2----2---------2----2----2--------------|-----------%------0-----|-0-------|-2----2---------2----2----2--------------|
D|-0----0----5----0----0----0--------------|-3----3----%------------|---------|-0----0----5----0----0----0--------------|
A|-----------3-------------------3----0----|-3----3-----------------|---------|-----------3-------------------3----0----|
E|-----------------------------------------|-1----1-----------------|---------|-----------------------------------------|

E|-----------------------------------------|-------------------------------------|-----------------------------|
B|-----------------------------------------|--------------------------------3----|-3----------3----3-----3-----|
G|-2----2---------2----2----2--------------|-----------%---------------%----4----|-4-----%----4----4-----4-----|
D|-0----0----5----0----0----0--------------|-3----3----%----3----3-----%----5----|-5-----%----5----5-----5-----|
A|-----------3-------------------3----0----|-3----3---------3----3----------5----|-5----------5----5-----5-----|
E|-----------------------------------------|-1----1---------1----1----------3----|-3----------3----3-----3-----|

E|---------|-------------------|-----------------------------------------|-----------------------------------------|
B|---------|-------------------|-3----3----------------------------------|-----------------------------------------|
G|---------|--------------5----|-2----2---------2----2----2--------------|-2----2---------2----2----2--------------|
D|-7-------|-7-------7----5----|-0----0----5----0----0----0--------------|-0----0----5----0----0----0--------------|
A|-7-------|-7-------7----3----|-----------3-------------------3----0----|-----------3-------------------3----0----|
E|-5-------|-5-------5---------|-----------------------------------------|-----------------------------------------|

E|-------------------------------------|-------------------------------------|-----------------------------------------|
B|----------------3----3---------------|-------------------------------------|-----------------------------------------|
G|-2----2---------2----2---------------|-2----2---------2----2---------------|-2----2---------2----2----2--------------|
D|-0----0----5----0----0---------------|-0----0----5----0----0---------------|-0----0----5----0----0----0--------------|
A|-----------3---------------3----0----|-----------3---------------3----0----|-----------3-------------------3----0----|
E|-------------------------------------|-------------------------------------|-----------------------------------------|

E|-----------------------------------------|-------------------------------------------------|
B|-----------------------------------------|-------------------------------------------------|
G|-2----2---------2----2----2--------------|-2----2-----2----2---4---2---4---2---4---2---4---|
D|-0----0----5----0----0----0--------------|-0----0------------------------------------------|
A|-----------3-------------------3----0----|-------------------------------------------------|
E|-----------------------------------------|-------------------------------------------------|

E|-----------------------------------------------------------------|-----------------------------------------|
B|-----------------------------------------------------------------|-3----3----------------------------------|
G|-2---4---2---4---2---4---2---4---2---4---2---4---2---4---2---4---|-2----2---------2----2----2--------------|
D|-----------------------------------------------------------------|-0----0----5----0----0----0--------------|
A|-----------------------------------------------------------------|-----------3-------------------3----0----|
E|-----------------------------------------------------------------|-----------------------------------------|

E|-----------------------------------------|-----------------------------------------|
B|-----------------------------------------|-3----3----------------------------------|
G|-2----2---------2----2----2--------------|-2----2---------2----2----2--------------|
D|-0----0----5----0----0----0--------------|-0----0----5----0----0----0--------------|
A|-----------3-------------------3----0----|-----------3-------------------3----0----|
E|-----------------------------------------|-----------------------------------------|

E|-----------------------------------------|-----------------------------------------|
B|-----------------------------------------|-3----3----------------------------------|
G|-2----2---------2----2----2--------------|-2----2---------2----2----2--------------|
D|-0----0----5----0----0----0--------------|-0----0----5----0----0----0--------------|
A|-----------3-------------------3----0----|-----------3-------------------3----0----|
E|-----------------------------------------|-----------------------------------------|

E|-----------------------------------------|-----------------------------------------|
B|-----------------------------------------|-3----3----------------------------------|
G|-2----2---------2----2----2--------------|-2----2---------2----2----2--------------|
D|-0----0----5----0----0----0--------------|-0----0----5----0----0----0--------------|
A|-----------3-------------------3----0----|-----------3-------------------3----0----|
E|-----------------------------------------|-----------------------------------------|

E|-----------------------------------------|------------------------|---------|-----------------------------------------|
B|-----------------------------------------|------------------0-----|-0-------|-----------------------------------------|
G|-2----2---------2----2----2--------------|-----------%------0-----|-0-------|-2----2---------2----2----2--------------|
D|-0----0----5----0----0----0--------------|-3----3----%------------|---------|-0----0----5----0----0----0--------------|
A|-----------3-------------------3----0----|-3----3-----------------|---------|-----------3-------------------3----0----|
E|-----------------------------------------|-1----1-----------------|---------|-----------------------------------------|

E|-----------------------------------------|-------------------------------------|-----------------------------|
B|-----------------------------------------|--------------------------------3----|-3----------3----3-----3-----|
G|-2----2---------2----2----2--------------|-----------%---------------%----4----|-4-----%----4----4-----4-----|
D|-0----0----5----0----0----0--------------|-3----3----%----3----3-----%----5----|-5-----%----5----5-----5-----|
A|-----------3-------------------3----0----|-3----3---------3----3----------5----|-5----------5----5-----5-----|
E|-----------------------------------------|-1----1---------1----1----------3----|-3----------3----3-----3-----|

E|---------|--------------------|---------|---------|-------------------------------------|
B|---------|--------------------|---------|---------|-------------------------------------|
G|---------|--------------%-----|-%-------|-%-------|-------------------------------------|
D|-7-------|-7------7-----%-----|-%-------|-%-------|-7-----7----7----7----7----7----7----|
A|-7-------|-7------7-----------|---------|---------|-7-----7----7----7----7----7----7----|
E|-5-------|-5------5-----------|---------|---------|-5-----5----5----5----5----5----5----|

E|-------------------------------------|-------------------------------------|-------------------------------------|
B|-------------------------------------|-------------------------------------|-------------------------------------|
G|-------------------------------------|-------------------------------------|-7-----7----7----7----7----7----%----|
D|-5-----5----5----5----5----5----5----|-7-----7----7----7----7----7----7----|-7-----7----7----7----7----7----%----|
A|-5-----5----5----5----5----5----5----|-7-----7----7----7----7----7----7----|-5-----5----5----5----5----5---------|
E|-3-----3----3----3----3----3----3----|-5-----5----5----5----5----5----5----|-------------------------------------|

E|-------------------------------------|-------------------------------------|-------------------------------------|
B|-------------------------------------|-------------------------------------|-------------------------------------|
G|-------------------------------------|-------------------------------------|-------------------------------------|
D|-7-----7----7----7----7----7----7----|-5-----5----5----5----5----5----5----|-7-----7----7----7----7----7----7----|
A|-7-----7----7----7----7----7----7----|-5-----5----5----5----5----5----5----|-7-----7----7----7----7----7----7----|
E|-5-----5----5----5----5----5----5----|-3-----3----3----3----3----3----3----|-5-----5----5----5----5----5----5----|

E|-------------------------------------|-------------------------|-------------------------|
B|-------------------------------------|-------------------------|-------------------------|
G|-7-----7----7----7----7----7----%----|--------7----7-----------|------7------------7-----|
D|-7-----7----7----7----7----7----%----|-2------7----7-----2-----|-2----7------2-----7-----|
A|-5-----5----5----5----5----5---------|-2------5----5-----2-----|-2----5------2-----5-----|
E|-------------------------------------|-0-----------------0-----|-0-----------0-----------|

E|-------------------------|-------------------------|---------|---------|---------|
B|-------------------------|-------------------------|---------|---------|---------|
G|-7------5----5-----7-----|-7----5------5-----4-----|---------|---------|-%-------|
D|-7------5----5-----7-----|-7----5------5-----4-----|-7-------|-7-------|-%-------|
A|-5------3----3-----5-----|-5----3------3-----2-----|-7-------|-7-------|---------|
E|-------------------------|-------------------------|-5-------|-5-------|---------|

E|-----------------------------------------|-----------------------------------------|
B|-3----3----------------------------------|-----------------------------------------|
G|-2----2---------2----2----2--------------|-2----2---------2----2----2--------------|
D|-0----0----5----0----0----0--------------|-0----0----5----0----0----0--------------|
A|-----------3-------------------3----0----|-----------3-------------------3----0----|
E|-----------------------------------------|-----------------------------------------|

E|-----------------------------------------|-----------------------------------------|
B|-3----3----------------------------------|-----------------------------------------|
G|-2----2---------2----2----2--------------|-2----2---------2----2----2--------------|
D|-0----0----5----0----0----0--------------|-0----0----5----0----0----0--------------|
A|-----------3-------------------3----0----|-----------3-------------------3----0----|
E|-----------------------------------------|-----------------------------------------|

E|-----------------------------------------|-----------------------------------------|
B|-3----3----------------------------------|-----------------------------------------|
G|-2----2---------2----2----2--------------|-2----2---------2----2----2--------------|
D|-0----0----5----0----0----0--------------|-0----0----5----0----0----0--------------|
A|-----------3-------------------3----0----|-----------3-------------------3----0----|
E|-----------------------------------------|-----------------------------------------|

E|-----------------------------------------|-----------------------------------------|
B|-3----3----------------------------------|-----------------------------------------|
G|-2----2---------2----2----2--------------|-2----2---------2----2----2--------------|
D|-0----0----5----0----0----0--------------|-0----0----5----0----0----0--------------|
A|-----------3-------------------3----0----|-----------3-------------------3----0----|
E|-----------------------------------------|-----------------------------------------|

E|-----------------------------------------|-----------------------------------------|
B|-3----3----------------------------------|-----------------------------------------|
G|-2----2---------2----2----2--------------|-2----2---------2----2----2--------------|
D|-0----0----5----0----0----0--------------|-0----0----5----0----0----0--------------|
A|-----------3-------------------3----0----|-----------3-------------------3----0----|
E|-----------------------------------------|-----------------------------------------|

E|-----------------------------------------|-----------------------------------------|
B|-3----3----------------------------------|-----------------------------------------|
G|-2----2---------2----2----2--------------|-2----2---------2----2----2--------------|
D|-0----0----5----0----0----0--------------|-0----0----5----0----0----0--------------|
A|-----------3-------------------3----0----|-----------3-------------------3----0----|
E|-----------------------------------------|-----------------------------------------|

E|-----------------------------------------|-----------------------------------------|
B|-3----3----------------------------------|-----------------------------------------|
G|-2----2---------2----2----2--------------|-2----2---------2----2----2--------------|
D|-0----0----5----0----0----0--------------|-0----0----5----0----0----0--------------|
A|-----------3-------------------3----0----|-----------3-------------------3----0----|
E|-----------------------------------------|-----------------------------------------|

E|-----------------------------------------|-----------------------------------------|
B|-3----3----------------------------------|-----------------------------------------|
G|-2----2---------2----2----2--------------|-2----2---------2----2----2--------------|
D|-0----0----5----0----0----0--------------|-0----0----5----0----0----0--------------|
A|-----------3-------------------3----0----|-----------3-------------------3----0----|
E|-----------------------------------------|-----------------------------------------|

E|-----------------------------------------------------------------|-----------------------------------------------------------------|
B|-----------------------------------------13--13--13--13--13--13--|-13--13--15--15--15--16--16--16--17--17--17--17--18--18--18--18--|
G|-14--14--14--14--15--15--15--15--15--15--------------------------|-----------------------------------------------------------------|
D|-----------------------------------------------------------------|-----------------------------------------------------------------|
A|-----------------------------------------------------------------|-----------------------------------------------------------------|
E|-----------------------------------------------------------------|-----------------------------------------------------------------|

E|-15--15--15--15--15--15--17--17--17--17--17--17--17--17--17--17--|-20--20--20--20--20--20--20--20--17--17--17--18--18--18--15--15--|
B|-----------------------------------------------------------------|-----------------------------------------------------------------|
G|-----------------------------------------------------------------|-----------------------------------------------------------------|
D|-----------------------------------------------------------------|-----------------------------------------------------------------|
A|-----------------------------------------------------------------|-----------------------------------------------------------------|
E|-----------------------------------------------------------------|-----------------------------------------------------------------|

E|-15--15--17--17--18--18--18--17--17--17--15--15--17--17--18--18--|-18--17--15--18--17---15---18---17---15---18---17---15---18---|
B|-----------------------------------------------------------------|--------------------------------------------------------------|
G|-----------------------------------------------------------------|--------------------------------------------------------------|
D|-----------------------------------------------------------------|--------------------------------------------------------------|
A|-----------------------------------------------------------------|--------------------------------------------------------------|
E|-----------------------------------------------------------------|--------------------------------------------------------------|

E|-17--15--18--17--15--18--17--14--18--17--15--18--17--15--18--17--|-18---15---18---15---18---15---18---15---18---15---18---|
B|-----------------------------------------------------------------|--------------------------------------------------------|
G|-----------------------------------------------------------------|--------------------------------------------------------|
D|-----------------------------------------------------------------|--------------------------------------------------------|
A|-----------------------------------------------------------------|--------------------------------------------------------|
E|-----------------------------------------------------------------|--------------------------------------------------------|

E|-----17--20---17---20---17---20---17---20---17---18---|-15---18---15---18---15---18---15---13---15---13---15---|
B|------------------------------------------------------|--------------------------------------------------------|
G|-%----------------------------------------------------|--------------------------------------------------------|
D|-%----------------------------------------------------|--------------------------------------------------------|
A|------------------------------------------------------|--------------------------------------------------------|
E|------------------------------------------------------|--------------------------------------------------------|

E|-13---12---13---12---10-------------------------------|-------------------------------|
B|--------------------------13---13---13--11--13---11---|-12---10---12--10-------0------|
G|------------------------------------------------------|-------------------12---0------|
D|------------------------------------------------------|------------------------0------|
A|------------------------------------------------------|-------------------------------|
E|------------------------------------------------------|-------------------------------|

E|-15----------------------|-14----------------3-----|-3-----------------------|-2---------------------------|
B|--------15---15----------|-15-----15---15----3-----|-3------3----3-----------|-3------3----3-----15--15----|
G|-------------------14----|--------14---14----------|-------------------2-----|-2---------------------------|
D|-------------------------|-------------------------|-------------------------|-----------------------------|
A|-------------------------|-------------------------|-------------------------|-----------------------------|
E|-------------------------|-------------------------|-------------------------|-----------------------------|

E|-15----------------------|-14----------------------|-3-----------------------|-2---------------------5-----|
B|--------15---15----------|-15-----15---15----3-----|--------3----3-----------|-3------2----2----2----------|
G|-------------------14----|-14-----14---14----2-----|-------------------2-----|-2------3----3----3----2-----|
D|-------------------------|-------------------------|-------------------------|-----------------------------|
A|-------------------------|-------------------------|-------------------------|-----------------------------|
E|-------------------------|-------------------------|-------------------------|-----------------------------|

E|-5-----7----7----7----8----8-----|-10-----12---12---14---------|-5-----7----7----7----8----8----10---|
B|---------------------------------|-----------------------------|-------------------------------------|
G|-2-----4----4----4----5----5-----|-7------9----9----11---%-----|-2-----4----4----4----5----5----7----|
D|---------------------------------|-----------------------%-----|-------------------------------------|
A|---------------------------------|-----------------------------|-------------------------------------|
E|---------------------------------|-----------------------------|-------------------------------------|

E|-10----12---12---12---14---------|-5-----7----7----7----8----8-----|-10-----12---12---14---------|
B|---------------------------------|---------------------------------|-----------------------------|
G|-7-----9----9----9----11---%-----|-2-----4----4----4----5----5-----|-7------9----9----11---%-----|
D|---------------------------%-----|---------------------------------|-----------------------%-----|
A|---------------------------------|---------------------------------|-----------------------------|
E|---------------------------------|---------------------------------|-----------------------------|

E|-5-----7----7----7----8----8----10---|-10----12---12---------------|-------------------------------------|
B|-------------------------------------|-----------------------------|-------------------------------------|
G|-2-----4----4----4----5----5----7----|-7-----9----9----%-----------|-5-----%----5----%----7----7----7----|
D|-------------------------------------|-----------------%-----5-----|-5-----%----5----%----7----7----7----|
A|-------------------------------------|-----------------------3-----|-3----------3---------5----5----5----|
E|-------------------------------------|-----------------------------|-------------------------------------|

E|----------------------------|-------------------------------------|------------------------|
B|----------------------------|-------------------------------------|------------------------|
G|-7------7----5----5----5----|-5-----%----5----%----7----7----7----|-7------7-----7----7----|
D|-7------7----5----5----5----|-5-----%----5----%----7----7----7----|-7------7-----7----7----|
A|-5------5----3----3----3----|-3----------3---------5----5----5----|-5------5-----5----5----|
E|----------------------------|-------------------------------------|------------------------|

E|-------------------------------------|---------------|-------------------------------------|
B|-------------------------------------|---------------|-------------------------------------|
G|-5-----%----5----%----7----7----7----|-7-------7-----|-5-----%----5----%----7----7----7----|
D|-5-----%----5----%----7----7----7----|-7-------7-----|-5-----%----5----%----7----7----7----|
A|-3----------3---------5----5----5----|-5-------5-----|-3----------3---------5----5----5----|
E|-------------------------------------|---------------|-------------------------------------|

E|----------------------------|-------------------------------------|---------|-----------------------------------------|
B|----------------------------|----------------------3----3----3----|-3-------|-----------------------------------------|
G|-7---------------------%----|-------%--------------4----4----4----|-4-------|-7----7----5----7----7----7----5---------|
D|-7------3----3----3----%----|-3-----%----3----3----5----5----5----|-5-------|-7----7----5----7----7----7----5----7----|
A|-5------3----3----3---------|-3----------3----3----5----5----5----|-5-------|-5----5----3----5----5----5----3----7----|
E|--------1----1----1---------|-1----------1----1----3----3----3----|-3-------|------------------------------------5----|

E|-----------------------------------------|----------------------------|-------------------|
B|-----------------------------------------|----------------------------|-------------------|
G|-7----7----5----7----7----7----5---------|-----------%---------%------|-------------------|
D|-7----7----5----7----7----7----5----7----|-3----3----%----3----%------|-5-------5----7----|
A|-5----5----3----5----5----5----3----7----|-3----3---------3-----------|-5-------5----7----|
E|------------------------------------5----|-1----1---------1-----------|-3-------3----5----|

E|----------------------------------------|-------------------------------------|-----------------------------------------|
B|----------------------------------------|-------------------------------------|-3----3----------------------------------|
G|----------------------------------------|---------------------%-----%---------|-2----2---------2----2----2--------------|
D|-7--------------------------------------|-----------2----2----%-----%---------|-0----0----5----0----0----0--------------|
A|-7------0---3---0---3---0---3---0---3---|-0---0-----0----0--------------------|-----------3-------------------3----0----|
E|-5--------------------------------------|--------------------------------19---|-----------------------------------------|

E|-----------------------------------------|-----------------------------------------|
B|-----------------------------------------|-3----3----------------------------------|
G|-2----2---------2----2----2--------------|-2----2---------2----2----2--------------|
D|-0----0----5----0----0----0--------------|-0----0----5----0----0----0--------------|
A|-----------3-------------------3----0----|-----------3-------------------3----0----|
E|-----------------------------------------|-----------------------------------------|

E|-----------------------------------------|-----------------------------------------|
B|-----------------------------------------|-----------------------------------------|
G|-2----2---------2----2----2--------------|-2----2---------2----2----2--------------|
D|-0----0----5----0----0----0--------------|-0----0----5----0----0----0--------------|
A|-----------3-------------------3----0----|-----------3-------------------3----0----|
E|-----------------------------------------|-----------------------------------------|

E|-----------------------------------------------------|-----------------------------------------------------------------|
B|-----------------------------------------------------|-----------------------------------------------------------------|
G|-2----2----%----2----2---4---2---4---2---4---2---4---|-2---4---2---4---2---4---2---4---2---4---2---4---2---4---2---4---|
D|-0----0----%-----------------------------------------|-----------------------------------------------------------------|
A|-----------------------------------------------------|-----------------------------------------------------------------|
E|-----------------------------------------------------|-----------------------------------------------------------------|

E|-----------------------------------------------------------------|-----------------------------------------------------------------|
B|-----------------------------------------------------------------|-----------------------------------------------------------------|
G|-2---4---2---4---2---4---2---4---2---4---2---4---2---4---2---4---|-2---4---2---4---2---4---2---4---2---4---2---4---2---4---2---4---|
D|-----------------------------------------------------------------|-----------------------------------------------------------------|
A|-----------------------------------------------------------------|-----------------------------------------------------------------|
E|-----------------------------------------------------------------|-----------------------------------------------------------------|

E|-----------------------------------------|-----------------------------------------|
B|-----------------------------------------|-----------------------------------------|
G|-2----2---------2----2----2--------------|-2----2---------2----2----2--------------|
D|-0----0----5----0----0----0--------------|-0----0----5----0----0----0--------------|
A|-----------3-------------------3----0----|-----------3-------------------3----0----|
E|-----------------------------------------|-----------------------------------------|

E|-----------------------------------------|-----------------------------------------|
B|-----------------------------------------|-3----3----------------------------------|
G|-2----2---------2----2----2--------------|-2----2---------2----2----2--------------|
D|-0----0----5----0----0----0--------------|-0----0----5----0----0----0--------------|
A|-----------3-------------------3----0----|-----------3-------------------3----0----|
E|-----------------------------------------|-----------------------------------------|

E|-----------------------------------------|-----------------------------------------|
B|-----------------------------------------|-3----3----------------------------------|
G|-2----2---------2----2----2--------------|-2----2---------2----2----2--------------|
D|-0----0----5----0----0----0--------------|-0----0----5----0----0----0--------------|
A|-----------3-------------------3----0----|-----------3-------------------3----0----|
E|-----------------------------------------|-----------------------------------------|

E|-----------------------------------------|------------------------|------------------------|
B|-----------------------------------------|------------------------|------------------------|
G|-2----2---------2----2----2--------------|-------%----------------|-------%----------------|
D|-0----0----5----0----0----0--------------|-3-----%----3----3------|-5-----%----5----5------|
A|-----------3-------------------3----0----|-3----------3----3------|-5----------5----5------|
E|-----------------------------------------|-1----------1----1------|-3----------3----3------|

E|-----------------------------------------|-----------------------------------------|
B|-----------------------------------------|-----------------------------------------|
G|-7----7----5----7----7----7----5---------|-7----7----5----7----7----7----5---------|
D|-7----7----5----7----7----7----5----7----|-7----7----5----7----7----7----5----7----|
A|-5----5----3----5----5----5----3----7----|-5----5----3----5----5----5----3----7----|
E|------------------------------------5----|------------------------------------5----|

E|------------------------|------------------------|---------|---------|---------|---------|
B|------------------------|------------------------|---------|---------|---------|---------|
G|-------%----------------|-------%----------------|---------|---------|-%-------|-%-------|
D|-3-----%----3----3------|-5-----%----5----5------|-7-------|-7-------|-%-------|-%-------|
A|-3----------3----3------|-5----------5----5------|-7-------|-7-------|---------|---------|
E|-1----------1----1------|-3----------3----3------|-5-------|-5-------|---------|---------|

E|---------|---------|---------|---------|--------------------------------------------------|
B|---------|---------|---------|---------|--------------------------------------------------|
G|-%-------|-%-------|-%-------|-%-------|--------------------------------------------------|
D|-%-------|-%-------|-%-------|-%-------|-7----7---7---7----7---7---7----7---7---7----5----|
A|---------|---------|---------|---------|-7----7---7---7----7---7---7----7---7---7----5----|
E|---------|---------|---------|---------|-5----5---5---5----5---5---5----5---5---5----3----|

E|--------------------------------------------------|--------------------------------------------------|
B|--------------------------------------------------|--------------------------------------------------|
G|--------------------------------------------------|--------------------------------------------------|
D|-7----7---7---7----7---7---7----7---7---7----5----|--------------------------------------------------|
A|-7----7---7---7----7---7---7----7---7---7----5----|-0----0---0---0----0---0---0----0---0---0---------|
E|-5----5---5---5----5---5---5----5---5---5----3----|---------------------------------------------3----|

E|--------------------------------------------------|------------------------------------|
B|--------------------------------------------------|-7----7------7----7-----------------|
G|--------------------------------------------------|-7----7------7----7----7---5--------|
D|--------------------------------------------------|-------------------------------7----|
A|-0----0---0---0----0---0---0----0---0---0---------|------------------------------------|
E|---------------------------------------------3----|------------------------------------|

E|----------------8----8---------------|------------------------------------|----------------8----8---------------|
B|----------------8----8---------------|-7----7------7----7-----------------|----------------8----8---------------|
G|------%----%--------------------%----|-7----7------7----7----7---5--------|--------------------------------%----|
D|------%----%--------------------%----|-------------------------------7----|--------------------------------%----|
A|-0-------------------------0---------|------------------------------------|-0----0----0---------------0---------|
E|-------------------------------------|------------------------------------|-------------------------------------|

E|------------------------------------|-5--------------8----8-----------|----------------------------------------|
B|-7----7------7----7-----------------|-5--------------8----8-----------|-7----7----7----------------------------|
G|-7----7------7----7----7---5--------|---------------------------------|-7----7----7-------5----%---------5-----|
D|-------------------------------7----|---------------------------7-----|---------------5--------%----5----------|
A|------------------------------------|------0----0---------------7-----|----------------------------------------|
E|------------------------------------|---------------------------------|----------------------------------------|

E|---------------------------------|--------------------------------------------------|
B|---------------------------------|--------------------------------------------------|
G|-5----5----5----5----5----5------|--------------------------------------------------|
D|---------------------------------|-7----7---7---7----7---7---7----7---7---7----5----|
A|---------------------------------|-7----7---7---7----7---7---7----7---7---7----5----|
E|---------------------------------|-5----5---5---5----5---5---5----5---5---5----3----|

E|--------------------------------------------------|--------------------------------------------------|
B|--------------------------------------------------|--------------------------------------------------|
G|--------------------------------------------------|--------------------------------------------------|
D|-7----7---7---7----7---7---7----7---7---7----5----|-7----7---7---7----7---7---7----7---7---7----5----|
A|-7----7---7---7----7---7---7----7---7---7----5----|-7----7---7---7----7---7---7----7---7---7----5----|
E|-5----5---5---5----5---5---5----5---5---5----3----|-5----5---5---5----5---5---5----5---5---5----3----|

E|--------------------------------------------------|--------------------------------------------------|
B|--------------------------------------------------|--------------------------------------------------|
G|--------------------------------------------------|--------------------------------------------------|
D|-7----7---7---7----7---7---7----7---7---7----5----|-7----7---7---7----7---7---7----7---7---7----5----|
A|-7----7---7---7----7---7---7----7---7---7----5----|-7----7---7---7----7---7---7----7---7---7----5----|
E|-5----5---5---5----5---5---5----5---5---5----3----|-5----5---5---5----5---5---5----5---5---5----3----|

E|--------------------------------------------------|---------|
B|--------------------------------------------------|---------|
G|--------------------------------------------------|-%-------|
D|-7----7---7---7----7---7---7----7---7---7----5----|-%-------|
A|-7----7---7---7----7---7---7----7---7---7----5----|---------|
E|-5----5---5---5----5---5---5----5---5---5----3----|---------|
Iron Maiden - Sanctuary
Iron Maiden - Sanctuary.gp3