Iron Maiden - Sea of Madness (solo)

Iron Maiden - Sea of Madness (solo)

Iron Maiden



Title: Sea of Madness (solo)
Album: 
Artist: 
Author: Iron Maiden

Track 1: 
E|------------------------|---------------------------------|----------------------------|
B|------------------------|---------------------------------|----------------------------|
G|-%------%-----%---------|---------------------------------|----------------------------|
D|-%------%-----%---------|-----------------------4---------|------------------4----7----|
A|-------------------5----|-5-----5-----5----7---------5----|-5------5----7--------------|
E|------------------------|---------------------------------|----------------------------|

E|-------------------------------|-------------------------------------|---------------------------------|
B|-------------------------------|-------------------------------------|---------------------------------|
G|-------------------------------|-------------------------------------|---------------------------------|
D|-7------7----9---7---9----5----|-5----7----4----5--------------------|-----------------------4---------|
A|-------------------------------|----------------------5----6----5----|-5-----5-----5----7---------5----|
E|-------------------------------|-------------------------------------|---------------------------------|

E|----------------------------|-------------------------------------|-------------------------------------|
B|----------------------------|-------------------------------------|-------------------------------------|
G|--------%--------------7----|-7-----7--------------7---------2----|-2------------------------------4----|
D|--------%---------4----7----|-7-----7--------------7---------2----|-2-----7------------------------4----|
A|-5-----------7---------5----|-5-----5----5----5---------5----0----|-0-----7---------4----5----6----2----|
E|----------------------------|-------------------------------------|-------5----5------------------------|

E|-------------------------------------|---------------------------------|-------------------------------------|
B|-------------------------------------|---------------------------------|-------------------------------------|
G|-4-----4--------------4----2---------|----------------------------7----|-7-----7--------------7--------------|
D|-4-----4--------------4----2----5----|-5-----5--------------7-----7----|-7-----7--------------7---------7----|
A|-2-----2----2----2----2----0----5----|-5-----5--------------7-----5----|-5-----5----5----5---------5----7----|
E|--------------------------------3----|-3-----3----3----3----5----------|--------------------------------5----|

E|-------------------------------------|-------------------------------------|---------------------------------|
B|-------------------------------------|-------------------------------------|---------------------------------|
G|--------------------------------4----|-4-----4--------------4----2---------|----------------------------7----|
D|-7-----7----7-------------------4----|-4-----4--------------4----2----5----|-5-----5--------------7-----7----|
A|-7-----7----7----5----4---------2----|-2-----2----2----2----2----0----5----|-5-----5--------------7-----5----|
E|-5-----5----5--------------5---------|--------------------------------3----|-3-----3----3----3----5----------|

E|-------------------------------------|---------------------------------|---------|
B|-------------------------------------|---------------------------------|---------|
G|-7-----7--------------7--------------|----------------------------6----|-6-------|
D|-7-----7--------------7---------7----|-7-----7---------7----7-----6----|-6-------|
A|-5-----5----5----5---------5----7----|-7-----7---------7----7-----4----|-4-------|
E|--------------------------------5----|-5-----5----5----5----5----------|---------|

E|---------|
B|---------|
G|-6-------|
D|-6-------|
A|-4-------|
E|---------|
Iron Maiden - Sea of Madness (solo)
Iron Maiden - Sea of Madness (solo).gp3