Iron Maiden - Seventh Son Of A Seventh Son

Iron Maiden - Seventh Son Of A Seventh Son

Iron Maiden



Title: Seventh Son Of A Seventh Son
Album: 
Artist: 
Author: Iron Maiden

Track 1: Guitar 1
E|-----------|-------0----------------|-------0----------------|----------------------------------------|
B|-----------|-------0----------------|-------0----------------|----------------------------------------|
G|-5----7----|-9-----9------5----7----|-9-----9------5----7----|-5------5-------------------------------|
D|-5----7----|-9-----9------5----7----|-9-----9------5----7----|-5------5-------------------------------|
A|-3----5----|-7-----7------3----5----|-7-----7------3----5----|-3------3---3---3---3---3---2-----------|
E|-----------|-------0----------------|-------0----------------|--------------------------------5---3---|

E|-------------------|-------------------|-------0----------------|-------0----------------|
B|-------------------|-------------------|-------0----------------|-------0----------------|
G|-2-------5----7----|-2-------5----7----|-9-----9------5----7----|-9-----9------5----7----|
D|-2-------5----7----|-2-------5----7----|-9-----9------5----7----|-9-----9------5----7----|
A|-0-------3----5----|-0-------3----5----|-7-----7------3----5----|-7-----7------3----5----|
E|-------------------|-------------------|-------0----------------|-------0----------------|

E|----------------------------------------|-------------------|---------|-----------------------------------------------------------------|
B|----------------------------------------|-------------------|---------|-----------------------------------------------------------------|
G|-5------5-------------------------------|-2-------5----7----|-2-------|-----%---------------%---------------%---------------%-----------|
D|-5------5-------------------------------|-2-------5----7----|-2-------|-9---%---9---9---9---%---9---9---9---%---9---9---9---%---9---9---|
A|-3------3---3---3---3---3---2-----------|-0-------3----5----|-0-------|-7-------7---7---7-------7---7---7-------7---7---7-------7---7---|
E|--------------------------------5---3---|-------------------|---------|-0-------0---0---0-------0---0---0-------0---0---0-------0---0---|

E|-----------------------------------------------------------------|-----------------------------------------------------------------|
B|-----------------------------------------------------------------|-----------------------------------------------------------------|
G|-----%---------------%---------------%---------------%-----------|-----%---------------%---------------%---------------%-----------|
D|-9---%---9---9---9---%---9---9---9---%---9---9---9---%---9---9---|-9---%---9---9---9---%---9---9---9---%---9---9---9---%---9---9---|
A|-7-------7---7---7-------7---7---7-------7---7---7-------7---7---|-7-------7---7---7-------7---7---7-------7---7---7-------7---7---|
E|-0-------0---0---0-------0---0---0-------0---0---0-------0---0---|-0-------0---0---0-------0---0---0-------0---0---0-------0---0---|

E|-----------------------------------------------------------------|-----------------------------------------------------------------|
B|-----------------------------------------------------------------|-----------------------------------------------------------------|
G|-----%---------------%---------------%---------------%-----------|-----%---------------%---------------%---------------%-----------|
D|-9---%---9---9---9---%---9---9---9---%---9---9---9---%---9---9---|-9---%---9---9---9---%---9---9---9---%---9---9---9---%---9---9---|
A|-7-------7---7---7-------7---7---7-------7---7---7-------7---7---|-7-------7---7---7-------7---7---7-------7---7---7-------7---7---|
E|-0-------0---0---0-------0---0---0-------0---0---0-------0---0---|-0-------0---0---0-------0---0---0-------0---0---0-------0---0---|

E|-----------------------------------------------------------------|-----------------------------------------------------------------|
B|-----------------------------------------------------------------|-----------------------------------------------------------------|
G|-----%---------------%---------------%---------------%-----------|-----%---------------%---------------%---------------%-----------|
D|-9---%---9---9---9---%---9---9---9---%---9---9---9---%---9---9---|-9---%---9---9---9---%---9---9---9---%---9---9---9---%---9---9---|
A|-7-------7---7---7-------7---7---7-------7---7---7-------7---7---|-7-------7---7---7-------7---7---7-------7---7---7-------7---7---|
E|-0-------0---0---0-------0---0---0-------0---0---0-------0---0---|-0-------0---0---0-------0---0---0-------0---0---0-------0---0---|

E|-----------------------------------------------------------------|-----------------------------------------------------------------|
B|-----------------------------------------------------------------|-----------------------------------------------------------------|
G|-----%---------------%---------------%---------------%-----------|-----%---------------%---------------%---------------%-----------|
D|-9---%---9---9---9---%---9---9---9---%---9---9---9---%---9---9---|-9---%---9---9---9---%---9---9---9---%---9---9---9---%---9---9---|
A|-7-------7---7---7-------7---7---7-------7---7---7-------7---7---|-7-------7---7---7-------7---7---7-------7---7---7-------7---7---|
E|-0-------0---0---0-------0---0---0-------0---0---0-------0---0---|-0-------0---0---0-------0---0---0-------0---0---0-------0---0---|

E|-----------------------------------------------------------------|-----------------------------------------------------------------|
B|-----------------------------------------------------------------|-----------------------------------------------------------------|
G|-----%---------------%---------------%---------------%-----------|-----%---------------%---------------%---------------%-----------|
D|-9---%---9---9---9---%---9---9---9---%---9---9---9---%---9---9---|-5---%---5---5---5---%---5---5---5---%---5---5---5---%---5---5---|
A|-7-------7---7---7-------7---7---7-------7---7---7-------7---7---|-3-------3---3---3-------3---3---3-------3---3---3-------3---3---|
E|-0-------0---0---0-------0---0---0-------0---0---0-------0---0---|-3-------3---3---3-------3---3---3-------3---3---3-------3---3---|

E|-----------------------------------------------------------------|-----------------------------------------------------------------|
B|-----------------------------------------------------------------|-----------------------------------------------------------------|
G|-----%---------------%---------------%---------------%-----------|-----%---------------%---------------%---------------%-----------|
D|-5---%---5---5---5---%---5---5---5---%---5---5---5---%---5---5---|-9---%---9---9---9---%---9---9---9---%---9---9---9---%---9---9---|
A|-3-------3---3---3-------3---3---3-------3---3---3-------3---3---|-7-------7---7---7-------7---7---7-------7---7---7-------7---7---|
E|-3-------3---3---3-------3---3---3-------3---3---3-------3---3---|-0-------0---0---0-------0---0---0-------0---0---0-------0---0---|

E|-----------------------------------------------------------------|-----------------------------------------------------------------|
B|-----------------------------------------------------------------|-----------------------------------------------------------------|
G|-----%---------------%---------------%---------------%-----------|-----%---------------%---------------%---------------%-----------|
D|-9---%---9---9---9---%---9---9---9---%---9---9---9---%---9---9---|-9---%---9---9---9---%---9---9---9---%---9---9---9---%---9---9---|
A|-7-------7---7---7-------7---7---7-------7---7---7-------7---7---|-7-------7---7---7-------7---7---7-------7---7---7-------7---7---|
E|-0-------0---0---0-------0---0---0-------0---0---0-------0---0---|-0-------0---0---0-------0---0---0-------0---0---0-------0---0---|

E|-----------------------------------------------------------------|-----------------------------------------------------------------|
B|-----------------------------------------------------------------|-----------------------------------------------------------------|
G|-----%---------------%---------------%---------------%-----------|-----%---------------%---------------%---------------%-----------|
D|-9---%---9---9---9---%---9---9---9---%---9---9---9---%---9---9---|-9---%---9---9---9---%---9---9---9---%---9---9---9---%---9---9---|
A|-7-------7---7---7-------7---7---7-------7---7---7-------7---7---|-7-------7---7---7-------7---7---7-------7---7---7-------7---7---|
E|-0-------0---0---0-------0---0---0-------0---0---0-------0---0---|-0-------0---0---0-------0---0---0-------0---0---0-------0---0---|

E|-----------------------------------------------------------------|-----------------------------------------------------------------|
B|-----------------------------------------------------------------|-----------------------------------------------------------------|
G|-----%---------------%---------------%---------------%-----------|-----%---------------%---------------%---------------%-----------|
D|-9---%---9---9---9---%---9---9---9---%---9---9---9---%---9---9---|-9---%---9---9---9---%---9---9---9---%---9---9---9---%---9---9---|
A|-7-------7---7---7-------7---7---7-------7---7---7-------7---7---|-7-------7---7---7-------7---7---7-------7---7---7-------7---7---|
E|-0-------0---0---0-------0---0---0-------0---0---0-------0---0---|-0-------0---0---0-------0---0---0-------0---0---0-------0---0---|

E|-----------------------------------------------------------------|-----------------------------------------------------------------|
B|-----------------------------------------------------------------|-----------------------------------------------------------------|
G|-----%---------------%---------------%---------------%-----------|-----%---------------%---------------%---------------%-----------|
D|-9---%---9---9---9---%---9---9---9---%---9---9---9---%---9---9---|-9---%---9---9---9---%---9---9---9---%---9---9---9---%---9---9---|
A|-7-------7---7---7-------7---7---7-------7---7---7-------7---7---|-7-------7---7---7-------7---7---7-------7---7---7-------7---7---|
E|-0-------0---0---0-------0---0---0-------0---0---0-------0---0---|-0-------0---0---0-------0---0---0-------0---0---0-------0---0---|

E|-----------------------------------------------------------------|-----------------------------------------------------------------|
B|-----------------------------------------------------------------|-----------------------------------------------------------------|
G|-----%---------------%---------------%---------------%-----------|-----%---------------%---------------%---------------%-----------|
D|-9---%---9---9---9---%---9---9---9---%---9---9---9---%---9---9---|-9---%---9---9---9---%---9---9---9---%---9---9---9---%---9---9---|
A|-7-------7---7---7-------7---7---7-------7---7---7-------7---7---|-7-------7---7---7-------7---7---7-------7---7---7-------7---7---|
E|-0-------0---0---0-------0---0---0-------0---0---0-------0---0---|-0-------0---0---0-------0---0---0-------0---0---0-------0---0---|

E|-----------------------------------------------------------------|-----------------------------------------------------------------|
B|-----------------------------------------------------------------|-----------------------------------------------------------------|
G|-----%---------------%---------------%---------------%-----------|-----%---------------%---------------%---------------%-----------|
D|-5---%---5---5---5---%---5---5---5---%---5---5---5---%---5---5---|-5---%---5---5---5---%---5---5---5---%---5---5---5---%---5---5---|
A|-3-------3---3---3-------3---3---3-------3---3---3-------3---3---|-3-------3---3---3-------3---3---3-------3---3---3-------3---3---|
E|-3-------3---3---3-------3---3---3-------3---3---3-------3---3---|-3-------3---3---3-------3---3---3-------3---3---3-------3---3---|

E|-----------------------------------------------------------------|-----------------------------------------------------------------|
B|-----------------------------------------------------------------|-----------------------------------------------------------------|
G|-----%---------------%---------------%---------------%-----------|-----%---------------%---------------%---------------%-----------|
D|-9---%---9---9---9---%---9---9---9---%---9---9---9---%---9---9---|-9---%---9---9---9---%---9---9---9---%---9---9---9---%---9---9---|
A|-7-------7---7---7-------7---7---7-------7---7---7-------7---7---|-7-------7---7---7-------7---7---7-------7---7---7-------7---7---|
E|-0-------0---0---0-------0---0---0-------0---0---0-------0---0---|-0-------0---0---0-------0---0---0-------0---0---0-------0---0---|

E|-------------------------------------------------------|-------------------------------------------|
B|-------------------------------------------------------|-------------------------------------------|
G|-----%---------------%---------------%-----------------|-------------------------------------------|
D|-9---%---9---9---9---%---9---9---9---%---9---9---------|---------------------------5---------------|
A|-7-------7---7---7-------7---7---7-------7---7---------|------7---7---7----5---7-------7-----7-----|
E|-0-------0---0---0-------0---0---0-------0---0---12----|-0-----------------------------------------|

E|-----------------------------------------------------|-------------------------------------------|
B|-----------------------------------------------------|-------------------------------------------|
G|-----------------------------------------------------|-------------------------------------------|
D|---------------------------5---------7---7---5---4---|---------------------------5---------------|
A|------7---7---7----5---7-------7---------------------|------7---7---7----5---7-------7-----7-----|
E|-0---------------------------------------------------|-0-----------------------------------------|

E|--------------------------------------------------------|-----------------------------------------------------------------|
B|--------------------------------------------------------|-----------------------------------------------------------------|
G|-----------------------------------%--------------------|-----%---------------%---------------%---------------%-----------|
D|-------------------------------5---%---5---5---4--------|-9---%---9---9---9---%---9---9---9---%---9---9---9---%---9---9---|
A|------7---7---7----7---5---3-----------------------5----|-7-------7---7---7-------7---7---7-------7---7---7-------7---7---|
E|-0------------------------------------------------------|-0-------0---0---0-------0---0---0-------0---0---0-------0---0---|

E|-----------------------------------------------------------------|-----------------------------------------------------------------|
B|-----------------------------------------------------------------|-----------------------------------------------------------------|
G|-----%---------------%---------------%---------------%-----------|-5---%---5---5---5---%---5---5---5---%---5---5---5---%---5---5---|
D|-9---%---9---9---9---%---9---9---9---%---9---9---9---%---9---9---|-5---%---5---5---5---%---5---5---5---%---5---5---5---%---5---5---|
A|-7-------7---7---7-------7---7---7-------7---7---7-------7---7---|-3-------3---3---3-------3---3---3-------3---3---3-------3---3---|
E|-0-------0---0---0-------0---0---0-------0---0---0-------0---0---|-3-------3---3---3-------3---3---3-------3---3---3-------3---3---|

E|-----------------------------------------------------------------|-----------------------------------------------------------------|
B|-----------------------------------------------------------------|-----------------------------------------------------------------|
G|-5---%---5---5---5---%---5---5---5---%---5---5---5---%---5---5---|-7---%---7---7---7---%---7---7---7---%---7---7---7---%---7---7---|
D|-5---%---5---5---5---%---5---5---5---%---5---5---5---%---5---5---|-7---%---7---7---7---%---7---7---7---%---7---7---7---%---7---7---|
A|-3-------3---3---3-------3---3---3-------3---3---3-------3---3---|-5-------5---5---5-------5---5---5-------5---5---5-------5---5---|
E|-3-------3---3---3-------3---3---3-------3---3---3-------3---3---|-5-------5---5---5-------5---5---5-------5---5---5-------5---5---|

E|-----------------------------------------------------------------|-----------------------------------------------------------------|
B|-----------------------------------------------------------------|-----------------------------------------------------------------|
G|-7---%---7---7---7---%---7---7---7---%---7---7---7---%---7---7---|-5---%---5---5---5---%---5---5---5---%---5---5---5---%---5---5---|
D|-7---%---7---7---7---%---7---7---7---%---7---7---7---%---7---7---|-5---%---5---5---5---%---5---5---5---%---5---5---5---%---5---5---|
A|-5-------5---5---5-------5---5---5-------5---5---5-------5---5---|-3-------3---3---3-------3---3---3-------3---3---3-------3---3---|
E|-5-------5---5---5-------5---5---5-------5---5---5-------5---5---|-3-------3---3---3-------3---3---3-------3---3---3-------3---3---|

E|-----------------------------------------------------------------|-----------------------------------------------------------------|
B|-----------------------------------------------------------------|-----------------------------------------------------------------|
G|-5---%---5---5---5---%---5---5---5---%---5---5---5---%---5---5---|-----%---------------%---------------%---------------%-----------|
D|-5---%---5---5---5---%---5---5---5---%---5---5---5---%---5---5---|-9---%---9---9---9---%---9---9---9---%---9---9---9---%---9---9---|
A|-3-------3---3---3-------3---3---3-------3---3---3-------3---3---|-7-------7---7---7-------7---7---7-------7---7---7-------7---7---|
E|-3-------3---3---3-------3---3---3-------3---3---3-------3---3---|-0-------0---0---0-------0---0---0-------0---0---0-------0---0---|

E|-----------------------------------------------------------------|-----------------------------------------------------------------|
B|-----------------------------------------------------------------|-----------------------------------------------------------------|
G|-----%---------------%---------------%---------------%-----------|-----%---------------%---------------%---------------%-----------|
D|-9---%---9---9---9---%---9---9---9---%---9---9---9---%---9---9---|-9---%---9---9---9---%---9---9---9---%---9---9---9---%---9---9---|
A|-7-------7---7---7-------7---7---7-------7---7---7-------7---7---|-7-------7---7---7-------7---7---7-------7---7---7-------7---7---|
E|-0-------0---0---0-------0---0---0-------0---0---0-------0---0---|-0-------0---0---0-------0---0---0-------0---0---0-------0---0---|

E|-----------------------------------------------------------------|-----------------------------------------------------------------|
B|-----------------------------------------------------------------|-----------------------------------------------------------------|
G|-----%---------------%---------------%---------------%-----------|-----%---------------%---------------%---------------%-----------|
D|-9---%---9---9---9---%---9---9---9---%---9---9---9---%---9---9---|-9---%---9---9---9---%---9---9---9---%---9---9---9---%---9---9---|
A|-7-------7---7---7-------7---7---7-------7---7---7-------7---7---|-7-------7---7---7-------7---7---7-------7---7---7-------7---7---|
E|-0-------0---0---0-------0---0---0-------0---0---0-------0---0---|-0-------0---0---0-------0---0---0-------0---0---0-------0---0---|

E|-----------------------------------------------------------------|-----------------------------------------------------------------|
B|-----------------------------------------------------------------|-----------------------------------------------------------------|
G|-----%---------------%---------------%---------------%-----------|-----%---------------%---------------%---------------%-----------|
D|-9---%---9---9---9---%---9---9---9---%---9---9---9---%---9---9---|-9---%---9---9---9---%---9---9---9---%---9---9---9---%---9---9---|
A|-7-------7---7---7-------7---7---7-------7---7---7-------7---7---|-7-------7---7---7-------7---7---7-------7---7---7-------7---7---|
E|-0-------0---0---0-------0---0---0-------0---0---0-------0---0---|-0-------0---0---0-------0---0---0-------0---0---0-------0---0---|

E|-----------------------------------------------------------------|-----------------------------------------------------------------|
B|-----------------------------------------------------------------|-----------------------------------------------------------------|
G|-----%---------------%---------------%---------------%-----------|-----%---------------%---------------%---------------%-----------|
D|-9---%---9---9---9---%---9---9---9---%---9---9---9---%---9---9---|-5---%---5---5---5---%---5---5---5---%---5---5---5---%---5---5---|
A|-7-------7---7---7-------7---7---7-------7---7---7-------7---7---|-3-------3---3---3-------3---3---3-------3---3---3-------3---3---|
E|-0-------0---0---0-------0---0---0-------0---0---0-------0---0---|-3-------3---3---3-------3---3---3-------3---3---3-------3---3---|

E|-----------------------------------------------------------------|-----------------------------------------------------------------|
B|-----------------------------------------------------------------|-----------------------------------------------------------------|
G|-----%---------------%---------------%---------------%-----------|-----%---------------%---------------%---------------%-----------|
D|-5---%---5---5---5---%---5---5---5---%---5---5---5---%---5---5---|-9---%---9---9---9---%---9---9---9---%---9---9---9---%---9---9---|
A|-3-------3---3---3-------3---3---3-------3---3---3-------3---3---|-7-------7---7---7-------7---7---7-------7---7---7-------7---7---|
E|-3-------3---3---3-------3---3---3-------3---3---3-------3---3---|-0-------0---0---0-------0---0---0-------0---0---0-------0---0---|

E|-----------------------------------------------------------------|-------------------------------------------------------|
B|-----------------------------------------------------------------|-------------------------------------------------------|
G|-----%---------------%---------------%---------------%-----------|-----%---------------%---------------%-----------------|
D|-9---%---9---9---9---%---9---9---9---%---9---9---9---%---9---9---|-9---%---9---9---9---%---9---9---9---%---9---9---------|
A|-7-------7---7---7-------7---7---7-------7---7---7-------7---7---|-7-------7---7---7-------7---7---7-------7---7---------|
E|-0-------0---0---0-------0---0---0-------0---0---0-------0---0---|-0-------0---0---0-------0---0---0-------0---0---12----|

E|-------------------------------------------|-----------------------------------------------------|
B|-------------------------------------------|-----------------------------------------------------|
G|-------------------------------------------|-----------------------------------------------------|
D|---------------------------5---------------|---------------------------5---------7---7---5---4---|
A|------7---7---7----5---7-------7-----7-----|------7---7---7----5---7-------7---------------------|
E|-0-----------------------------------------|-0---------------------------------------------------|

E|-------------------------------------------|--------------------------------------------------------|
B|-------------------------------------------|--------------------------------------------------------|
G|-------------------------------------------|-----------------------------------%--------------------|
D|---------------------------5---------------|-------------------------------5---%---5---5---4--------|
A|------7---7---7----5---7-------7-----7-----|------7---7---7----7---5---3-----------------------5----|
E|-0-----------------------------------------|-0------------------------------------------------------|

E|-----------------------------------------------------------------|-----------------------------------------------------------------|
B|-----------------------------------------------------------------|-----------------------------------------------------------------|
G|-----%---------------%---------------%---------------%-----------|-----%---------------%---------------%---------------%-----------|
D|-9---%---9---9---9---%---9---9---9---%---9---9---9---%---9---9---|-9---%---9---9---9---%---9---9---9---%---9---9---9---%---9---9---|
A|-7-------7---7---7-------7---7---7-------7---7---7-------7---7---|-7-------7---7---7-------7---7---7-------7---7---7-------7---7---|
E|-0-------0---0---0-------0---0---0-------0---0---0-------0---0---|-0-------0---0---0-------0---0---0-------0---0---0-------0---0---|

E|-----------------------------------------------------------------|-----------------------------------------------------------------|
B|-----------------------------------------------------------------|-----------------------------------------------------------------|
G|-5---%---5---5---5---%---5---5---5---%---5---5---5---%---5---5---|-5---%---5---5---5---%---5---5---5---%---5---5---5---%---5---5---|
D|-5---%---5---5---5---%---5---5---5---%---5---5---5---%---5---5---|-5---%---5---5---5---%---5---5---5---%---5---5---5---%---5---5---|
A|-3-------3---3---3-------3---3---3-------3---3---3-------3---3---|-3-------3---3---3-------3---3---3-------3---3---3-------3---3---|
E|-3-------3---3---3-------3---3---3-------3---3---3-------3---3---|-3-------3---3---3-------3---3---3-------3---3---3-------3---3---|

E|-----------------------------------------------------------------|-----------------------------------------------------------------|
B|-----------------------------------------------------------------|-----------------------------------------------------------------|
G|-7---%---7---7---7---%---7---7---7---%---7---7---7---%---7---7---|-7---%---7---7---7---%---7---7---7---%---7---7---7---%---7---7---|
D|-7---%---7---7---7---%---7---7---7---%---7---7---7---%---7---7---|-7---%---7---7---7---%---7---7---7---%---7---7---7---%---7---7---|
A|-5-------5---5---5-------5---5---5-------5---5---5-------5---5---|-5-------5---5---5-------5---5---5-------5---5---5-------5---5---|
E|-5-------5---5---5-------5---5---5-------5---5---5-------5---5---|-5-------5---5---5-------5---5---5-------5---5---5-------5---5---|

E|-----------------------------------------------------------------|--------------------------------------------------------------|
B|-----------------------------------------------------------------|--------------------------------------------------------------|
G|-5---%---5---5---5---%---5---5---5---%---5---5---5---%---5---5---|-5---%---5---5---5---%---5---5---5---%---5---5---5---%--------|
D|-5---%---5---5---5---%---5---5---5---%---5---5---5---%---5---5---|-5---%---5---5---5---%---5---5---5---%---5---5---5---%--------|
A|-3-------3---3---3-------3---3---3-------3---3---3-------3---3---|-3-------3---3---3-------3---3---3-------3---3---3--------7---|
E|-3-------3---3---3-------3---3---3-------3---3---3-------3---3---|-3-------3---3---3-------3---3---3-------3---3---3------------|

E|-----------------------------------------------------------------|-----------------------------------------------------------------|
B|-----------------------------------------------------------------|-----------------------------------------------------------------|
G|-----------------------------------------------------------------|-----------------------------------------------------------------|
D|-----9---7---9-------7-------------------------------------------|-----9---7---9-------7-------------------------------------------|
A|-7---------------10------9---10--7-------7---9---10--9---10--7---|-7---------------10------9---10--7-------7---9---10--9---10--7---|
E|-------------------------------------10--------------------------|-------------------------------------10--------------------------|

E|-----------------------------------------------------------------|-----------------------------------------------------------------|
B|-----------------------------------------------------------------|-----------------------------------------------------------------|
G|-----------------------------------------------------------------|-----------------------------------------------------------------|
D|-----9---7---9-------7-------------------------------------------|-----9---7---9-------7-------------------------------------------|
A|-7---------------10------9---10--7-------7---9---10--9---10--7---|-7---------------10------9---10--7-------7---9---10--9---10--7---|
E|-------------------------------------10--------------------------|-------------------------------------10--------------------------|

E|-----------------------------------------------------------------|-----------------------------------------------------------------|
B|-----------------------------------------------------------------|-----------------------------------------------------------------|
G|-----------------------------------------------------------------|-----------------------------------------------------------------|
D|-----9---7---9-------7-------------------------------------------|-----9---7---9-------7-------------------------------------------|
A|-7---------------10------9---10--7-------7---9---10--9---10--7---|-7---------------10------9---10--7-------7---9---10--9---10--7---|
E|-------------------------------------10--------------------------|-------------------------------------10--------------------------|

E|-----------------------------------------------------------------|--------------------------------------------------------------|
B|-----------------------------------------------------------------|--------------------------------------------------------------|
G|-----------------------------------------------------------------|--------------------------------------------------------------|
D|-----9---7---9-------7-------------------------------------------|-----9---7---9-------7----------------------------------------|
A|-7---------------10------9---10--7-------7---9---10--9---10--7---|-7---------------10------9---10--7-------7---9---10--9---10---|
E|-------------------------------------10--------------------------|-------------------------------------10-----------------------|

E|----------------|----------------|---------------|----------------|----------------------|
B|----------------|----------------|---------------|----------------|----------------------|
G|-%-------%------|-%-------%------|-%-------%-----|-%-------%------|-%-------%------%-----|
D|-%-------%------|-%-------%------|-%-------%-----|-%-------%------|-%-------%------%-----|
A|----------------|----------------|---------------|----------------|----------------------|
E|----------------|----------------|---------------|----------------|----------------------|

E|----------------|----------------|---------------|----------------|----------------------|
B|----------------|----------------|---------------|----------------|----------------------|
G|-%-------%------|-%-------%------|-%-------%-----|-%-------%------|-%-------%------%-----|
D|-%-------%------|-%-------%------|-%-------%-----|-%-------%------|-%-------%------%-----|
A|----------------|----------------|---------------|----------------|----------------------|
E|----------------|----------------|---------------|----------------|----------------------|

E|----------------|----------------|---------------|----------------|----------------------|
B|----------------|----------------|---------------|----------------|----------------------|
G|-%-------%------|-%-------%------|-%-------%-----|-%-------%------|-%-------%------%-----|
D|-%-------%------|-%-------%------|-%-------%-----|-%-------%------|-%-------%------%-----|
A|----------------|----------------|---------------|----------------|----------------------|
E|----------------|----------------|---------------|----------------|----------------------|

E|----------------|----------------|---------------|----------------|----------------------|
B|----------------|----------------|---------------|----------------|----------------------|
G|-%-------%------|-%-------%------|-%-------%-----|-%-------%------|-%-------%------%-----|
D|-%-------%------|-%-------%------|-%-------%-----|-%-------%------|-%-------%------%-----|
A|----------------|----------------|---------------|----------------|----------------------|
E|----------------|----------------|---------------|----------------|----------------------|

E|----------------|----------------|---------------|----------------|----------------------|
B|----------------|----------------|---------------|----------------|----------------------|
G|-%-------%------|-%-------%------|-%-------%-----|-%-------%------|-%-------%------%-----|
D|-%-------%------|-%-------%------|-%-------%-----|-%-------%------|-%-------%------%-----|
A|----------------|----------------|---------------|----------------|----------------------|
E|----------------|----------------|---------------|----------------|----------------------|

E|----------------|----------------|---------------|----------------|----------------------|
B|----------------|----------------|---------------|----------------|----------------------|
G|-%-------%------|-%-------%------|-%-------%-----|-%-------%------|-%-------%------%-----|
D|-%-------%------|-%-------%------|-%-------%-----|-%-------%------|-%-------%------%-----|
A|----------------|----------------|---------------|----------------|----------------------|
E|----------------|----------------|---------------|----------------|----------------------|

E|----------------|----------------|---------------|----------------|----------------------|
B|----------------|----------------|---------------|----------------|----------------------|
G|-%-------%------|-%-------%------|-%-------%-----|-%-------%------|-%-------%------%-----|
D|-%-------%------|-%-------%------|-%-------%-----|-%-------%------|-%-------%------%-----|
A|----------------|----------------|---------------|----------------|----------------------|
E|----------------|----------------|---------------|----------------|----------------------|

E|----------------|----------------|---------------|----------------|----------------------|
B|----------------|----------------|---------------|----------------|----------------------|
G|-%-------%------|-%-------%------|-%-------%-----|-%-------%------|-%-------%------%-----|
D|-%-------%------|-%-------%------|-%-------%-----|-%-------%------|-%-------%------%-----|
A|----------------|----------------|---------------|----------------|----------------------|
E|----------------|----------------|---------------|----------------|----------------------|

E|-------------------------------|----------------------------------|---------------|
B|-------------------------------|----------------------------------|---------------|
G|-%-------%---------%-------%---|-----%---%----%-----%------%------|-%-------%-----|
D|-%-------%---------%-------%---|-2---%---%----%-----%------%------|-%-------%-----|
A|---------------2-------2-------|-2--------------------------------|---------------|
E|---------------0-------0-------|-0--------------------------------|---------------|

E|--------------------------------------|----------------------|-------------------------------|
B|--------------------------------------|----------------------|-------------------------------|
G|-----%-------%-------%--------%-------|-%-------%------%-----|-%-------%---------%-------%---|
D|-----%-------%-------%---2----%-------|-%-------%------%-----|-%-------%---------%-------%---|
A|-2-------2-------2-------2------------|----------------------|---------------2-------2-------|
E|-0-------0-------0-------0------------|----------------------|---------------0-------0-------|

E|----------------------------------|---------------|--------------------------------------|
B|----------------------------------|---------------|--------------------------------------|
G|-----%---%----%-----%------%------|-%-------%-----|-----%-------%-------%--------%-------|
D|-2---%---%----%-----%------%------|-%-------%-----|-----%-------%-------%---2----%-------|
A|-2--------------------------------|---------------|-2-------2-------2-------2------------|
E|-0--------------------------------|---------------|-0-------0-------0-------0------------|

E|----------------------|-------------------------------|----------------------------------|
B|----------------------|-------------------------------|----------------------------------|
G|-%-------%------%-----|-%-------%---------%-------%---|-----%---%----%-----%------%------|
D|-%-------%------%-----|-%-------%-----5---%---5---%---|-5---%---%----%-----%------%------|
A|----------------------|---------------3-------3-------|-3--------------------------------|
E|----------------------|---------------3-------3-------|-3--------------------------------|

E|---------------|--------------------------------------|----------------------|-------------------------------|
B|---------------|--------------------------------------|----------------------|-------------------------------|
G|-%-------%-----|-----%-------%-------%--------%-------|-%-------%------%-----|-%-------%---------%-------%---|
D|-%-------%-----|-5---%---5---%---5---%---5----%-------|-%-------%------%-----|-%-------%-----5---%---5---%---|
A|---------------|-3-------3-------3-------3------------|----------------------|---------------3-------3-------|
E|---------------|-3-------3-------3-------3------------|----------------------|---------------3-------3-------|

E|----------------------------------|---------------|--------------------------------------|
B|----------------------------------|---------------|--------------------------------------|
G|-----%---%----%-----%------%------|-%-------%-----|-----%-------%-------%--------%-------|
D|-5---%---%----%-----%------%------|-%-------%-----|-5---%---5---%---5---%---5----%-------|
A|-3--------------------------------|---------------|-3-------3-------3-------3------------|
E|-3--------------------------------|---------------|-3-------3-------3-------3------------|

E|----------------------|------------------------------------------------------------------|
B|----------------------|------------------------------------------------------------------|
G|-%-------%------%-----|-----%-------%-------%--------%----------%-------%-------%--------|
D|-%-------%------%-----|-----%-------%-------%---2----%----------%-------%-------%---2----|
A|----------------------|-2-------2-------2-------2-----------2-------2-------2-------2----|
E|----------------------|-0-------0-------0-------0-----------0-------0-------0-------0----|

E|--------------------------------------------|-----------------------------------------------------|
B|--------------------------------------------|-----------------------------------------------------|
G|-%----------%-------%-------%--------%------|-----%-------%-------%--------%----------%-------%---|
D|-%----------%-------%-------%---2----%------|-----%-------%-------%---2----%----------%-------%---|
A|--------2-------2-------2-------2-----------|-2-------2-------2-------2-----------2-------2-------|
E|--------0-------0-------0-------0-----------|-0-------0-------0-------0-----------0-------0-------|

E|--------------------------------------------------------|------------------------------------------------------------------------|
B|--------------------------------------------------------|------------------------------------------------------------------------|
G|-----%--------%----------%-------%-------%--------%-----|-%---------%-------%-------%--------%----------%-------%-------%--------|
D|-----%---2----%----------%-------%-------%---2----%-----|-%---------%-------%-------%---2----%----------%-------%-------%---2----|
A|-2-------2-----------2-------2-------2-------2----------|-------2-------2-------2-------2-----------2-------2-------2-------2----|
E|-0-------0-----------0-------0-------0-------0----------|-------0-------0-------0-------0-----------0-------0-------0-------0----|

E|--------------------------------------------|------------------------------------------------------------------|
B|--------------------------------------------|------------------------------------------------------------------|
G|-%----------%-------%-------%--------%------|-----%-------%-------%--------%----------%-------%-------%--------|
D|-%----------%-------%-------%---2----%------|-----%-------%-------%---2----%----------%-------%-------%---2----|
A|--------2-------2-------2-------2-----------|-2-------2-------2-------2-----------2-------2-------2-------2----|
E|--------0-------0-------0-------0-----------|-0-------0-------0-------0-----------0-------0-------0-------0----|

E|-------------------------------------------|-----------------------------------------------------------|
B|-------------------------------------------|-----------------------------------------------------------|
G|-%----------%-------%-------%--------%-----|-%---------%-------%-------%--------%----------%-------%---|
D|-%----------%-------%-------%---2----%-----|-%---------%-------%-------%---2----%----------%-------%---|
A|--------2-------2-------2-------2----------|-------2-------2-------2-------2-----------2-------2-------|
E|--------0-------0-------0-------0----------|-------0-------0-------0-------0-----------0-------0-------|

E|---------------------------------------------------------|------------------------------------------------------------------|
B|---------------------------------------------------------|------------------------------------------------------------------|
G|-----%--------%----------%-------%-------%--------%------|-----%-------%-------%--------%----------%-------%-------%--------|
D|-----%---2----%----------%-------%-------%---2----%------|-5---%---5---%---5---%---5----%------5---%---5---%---5---%---5----|
A|-2-------2-----------2-------2-------2-------2-----------|-3-------3-------3-------3-----------3-------3-------3-------3----|
E|-0-------0-----------0-------0-------0-------0-----------|-3-------3-------3-------3-----------3-------3-------3-------3----|

E|--------------------------------------------|-----------------------------------------------------|
B|--------------------------------------------|-----------------------------------------------------|
G|-%----------%-------%-------%--------%------|-----%-------%-------%--------%----------%-------%---|
D|-%------5---%---5---%---5---%---5----%------|-5---%---5---%---5---%---5----%------5---%---5---%---|
A|--------3-------3-------3-------3-----------|-3-------3-------3-------3-----------3-------3-------|
E|--------3-------3-------3-------3-----------|-3-------3-------3-------3-----------3-------3-------|

E|--------------------------------------------------------|------------------------------------------------------------------------|
B|--------------------------------------------------------|------------------------------------------------------------------------|
G|-----%--------%----------%-------%-------%--------%-----|-%---------%-------%-------%--------%----------%-------%-------%--------|
D|-5---%---5----%------5---%---5---%---5---%---5----%-----|-%-----5---%---5---%---5---%---5----%------5---%---5---%---5---%---5----|
A|-3-------3-----------3-------3-------3-------3----------|-------3-------3-------3-------3-----------3-------3-------3-------3----|
E|-3-------3-----------3-------3-------3-------3----------|-------3-------3-------3-------3-----------3-------3-------3-------3----|

E|--------------------------------------------|------------------------------------------------------------------|
B|--------------------------------------------|------------------------------------------------------------------|
G|-%----------%-------%-------%--------%------|-----%-------%-------%--------%----------%-------%-------%--------|
D|-%------5---%---5---%---5---%---5----%------|-5---%---5---%---5---%---5----%------5---%---5---%---5---%---5----|
A|--------3-------3-------3-------3-----------|-3-------3-------3-------3-----------3-------3-------3-------3----|
E|--------3-------3-------3-------3-----------|-3-------3-------3-------3-----------3-------3-------3-------3----|

E|-------------------------------------------|-----------------------------------------------------------|
B|-------------------------------------------|-----------------------------------------------------------|
G|-%----------%-------%-------%--------%-----|-%---------%-------%-------%--------%----------%-------%---|
D|-%------5---%---5---%---5---%---5----%-----|-%-----5---%---5---%---5---%---5----%------5---%---5---%---|
A|--------3-------3-------3-------3----------|-------3-------3-------3-------3-----------3-------3-------|
E|--------3-------3-------3-------3----------|-------3-------3-------3-------3-----------3-------3-------|

E|----------------------------------------------------------------------|-0-------|
B|----------------------------------------------------------------------|-0-------|
G|-----%--------%----------%-------%-------%-------------%----7----%----|-9-------|
D|-5---%---5----%------5---%---5---%---5---%---5----7----%----7----%----|-9-------|
A|-3-------3-----------3-------3-------3-------3----7---------5---------|-7-------|
E|-3-------3-----------3-------3-------3-------3----5-------------------|-0-------|

E|-0--------------------------|-0-------|-0--------------------------|-0-------|-0--------------------------|
B|-0--------------------------|-0-------|-0--------------------------|-5-------|-5--------------------------|
G|-9-----------%----7----%----|-9-------|-9-----------%----7----%----|-5-------|-5-----------%----7----%----|
D|-9------7----%----7----%----|-9-------|-9------7----%----7----%----|-5-------|-5------7----%----7----%----|
A|-7------7---------5---------|-7-------|-7------7---------5---------|-3-------|-3------7---------5---------|
E|-0------5-------------------|-0-------|-0------5-------------------|-3-------|-3------5-------------------|

E|-0-------|-0--------------------------|-12---14---17---14---14---12---14---12---|
B|-0-------|-0--------------------------|-----------------------------------------|
G|-9-------|-9-----------%----7----%----|-----------------------------------------|
D|-9-------|-9------7----%----7----%----|-----------------------------------------|
A|-7-------|-7------7---------5---------|-----------------------------------------|
E|-0-------|-0------5-------------------|-----------------------------------------|

E|-10---9----12---10---9---10--9---7---9----7----|-5----4----7----5----4---5---4---2---4---5---4---2---|
B|-----------------------------------------------|-----------------------------------------------------|
G|-----------------------------------------------|-----------------------------------------------------|
D|-----------------------------------------------|-----------------------------------------------------|
A|-----------------------------------------------|-----------------------------------------------------|
E|-----------------------------------------------|-----------------------------------------------------|

E|-4------4-------------------|-----------5----7-----4---5---4---2---4----|-5----12----10---9---10--9---7---9----7----|
B|----------------------------|-2-----------------------------------------|-------------------------------------------|
G|--------------%----%---4----|-------%-----------------------------------|-------------------------------------------|
D|--------------%----%--------|-------%-----------------------------------|-------------------------------------------|
A|----------------------------|-------------------------------------------|-------------------------------------------|
E|----------------------------|-------------------------------------------|-------------------------------------------|

E|-5----4----7----5----4----2----0---------|-------------------|-9----10----7----9----------------|
B|------------------------------------3----|-0-------0---------|-----------------------10----9----|
G|-----------------------------------------|---------------%---|----------------------------------|
D|-----------------------------------------|---------------%---|----------------------------------|
A|-----------------------------------------|-------------------|----------------------------------|
E|-----------------------------------------|-------------------|----------------------------------|

E|-------9-----10---7----9-----10---|-17------17--------|-17------17--------|-14--------14---14----16---17----14--|
B|-10-------------------------------|-------------------|-------------------|-------------------------------------|
G|----------------------------------|---------------%---|---------------%---|-------%-----------------------------|
D|----------------------------------|---------------%---|---------------%---|-------%-----------------------------|
A|----------------------------------|-------------------|-------------------|-------------------------------------|
E|----------------------------------|-------------------|-------------------|-------------------------------------|

E|-14----16----17---19---19----19------|-21----19---17----16---------------|-----------------------------------|
B|-------------------------------------|------------------------17---------|------------12----10----9----9-----|
G|---------------------------------%---|-----------------------------16----|-14----13--------------------------|
D|---------------------------------%---|-----------------------------------|-----------------------------------|
A|-------------------------------------|-----------------------------------|-----------------------------------|
E|-------------------------------------|-----------------------------------|-----------------------------------|

E|----------------------|-------------------------------|-------------------------------------|
B|----------------------|-------------------------------|-------------------------------------|
G|----------------------|-------------------------------|------------------%---%----%---------|
D|-4----3---------------|-------------4----4------------|--------------4---%---%----%----4----|
A|----------4---3-------|-3------3--------------4---3---|-3----3---4--------------------------|
E|----------------------|-------------------------------|-------------------------------------|

E|----------------------|-------------------------------|-------------------------------------|
B|----------------------|-------------------------------|-------------------------------------|
G|----------------------|-------------------------------|------------------%---%----%---------|
D|-4----3---------------|-------------4----4------------|--------------4---%---%----%----4----|
A|----------4---3-------|-3------3--------------4---3---|-3----3---4--------------------------|
E|----------------------|-------------------------------|-------------------------------------|

E|----------------------|-------------------------------|-------------------------------------|
B|----------------------|-------------------------------|-------------------------------------|
G|----------------------|-------------------------------|------------------%---%----%---------|
D|-4----3---------------|-------------4----4------------|--------------4---%---%----%----4----|
A|----------4---3-------|-3------3--------------4---3---|-3----3---4--------------------------|
E|----------------------|-------------------------------|-------------------------------------|

E|----------------------|-------------------------------|---------------------------------|
B|----------------------|-------------------------------|---------------------------------|
G|----------------------|-------------------------------|------------------%---%----%-----|
D|-4----3---------------|-------------4----4------------|--------------4---%---%----%-----|
A|----------4---3-------|-3------3--------------4---3---|-3----3---4----------------------|
E|----------------------|-------------------------------|---------------------------------|

E|-----------------------------------------|-----------------------------------------|
B|-----------------------------------------|-----------------------------------------|
G|-----------------------------------------|-----------------------------------------|
D|-----------------------------------------|-----------------------------------------|
A|-4--------------4--------------4---------|------4----------------------------------|
E|-2----2----2----2----2----2----2----2----|-2----2----2----2----3----3----2----0----|

E|-----------------------------------------|-----------------------------------------|
B|-----------------------------------------|-----------------------------------------|
G|-----------------------------------------|-----------------------------------------|
D|-----------------------------------------|-----------2----2----5----5----4----4----|
A|-4--------------4--------------4---------|-4----4----------------------------------|
E|-2----2----2----2----2----2----2----2----|-----------------------------------------|

E|-----------------------------------------|-----------------------------------------|
B|-----------------------------------------|-----------------------------------------|
G|-----------------------------------------|-----------------------------------------|
D|-----------------------------------------|-----------------------------------------|
A|-4--------------4--------------4---------|------4----------------------------------|
E|-2----2----2----2----2----2----2----2----|-2----2----2----2----3----3----2----0----|

E|-----------------------------------------|-----------------------------------------|
B|-----------------------------------------|-----------------------------------------|
G|-----------------------------------------|-----------------------------------------|
D|-----------------------------------------|-----------2----2----5----5----4----4----|
A|-4--------------4--------------4---------|-4----4----------------------------------|
E|-2----2----2----2----2----2----2----2----|-----------------------------------------|

E|----------------------------------------|-----------------------------------------|
B|----------------------------------------|-----------------------------------------|
G|-6---6---6--------------------%---------|---------------------4-------------------|
D|--------------7----6----7-----%----4----|-4----4----6----7---------7----6----7----|
A|----------------------------------------|-----------------------------------------|
E|----------------------------------------|-----------------------------------------|

E|----------------------------------------|-------------------------------------|---------------|
B|----------------------------------------|-------------------------------------|--------0------|
G|-6---6---6--------------------%---------|-------------------------------------|---------------|
D|--------------7----6----7-----%----4----|-4----4----6----7--------------------|-2------2------|
A|----------------------------------------|---------------------4----4----7-----|-4-------------|
E|----------------------------------------|-------------------------------------|---------------|

E|-------------------|-7-------|-7------7-------12--------------|------------------------------------|
B|-0-------0---------|-9-------|-9------9-------14---14----12---|-14-----14------14--------12--------|
G|---------------%---|---------|------------%--------14----13---|------------%--------13--------11---|
D|-2-------2-----%---|---------|------------%-------------------|------------%-----------------------|
A|-------------------|---------|--------------------------------|------------------------------------|
E|-------------------|---------|--------------------------------|------------------------------------|

E|---------------------6----3----4----3----|-4----0---------2----0---------0---------|
B|-9----8----7----5------------------------|-----------2--------------2---------2----|
G|-----------------------------------------|-----------------------------------------|
D|-----------------------------------------|-----------------------------------------|
A|-----------------------------------------|-----------------------------------------|
E|-----------------------------------------|-----------------------------------------|

E|------------------9----21---|-21------|-21--18-------18-----------15-------15-----------12--|
B|----------------------------|---------|----------20------20---17------17-------17--14-------|
G|--------------%-------------|---------|-----------------------------------------------------|
D|-4------4-----%-------------|---------|-----------------------------------------------------|
A|----------------------------|---------|-----------------------------------------------------|
E|----------------------------|---------|-----------------------------------------------------|

E|-----12-------12-------------------------------------|-------------------------------------------------|
B|-14-------14------14---12------12-------12--10-------|-----11-------11-------11--------------------7---|
G|---------------------------13-------13-----------11--|-12-------12------12-------12----12--%---9-------|
D|-----------------------------------------------------|-------------------------------------%-----------|
A|-----------------------------------------------------|-------------------------------------------------|
E|-----------------------------------------------------|-------------------------------------------------|

E|---------------------------------------------------------7-------|-7-----------------------|
B|-9---9---8---7---5---7---8---9---8---7---5---7---8---9-------9---|-----9---9-------9-------|
G|-----------------------------------------------------------------|---------------------%---|
D|-----------------------------------------------------------------|---------------------%---|
A|-----------------------------------------------------------------|-------------------------|
E|-----------------------------------------------------------------|-------------------------|

E|-------------------------------0---------|-5----3----4----11-----11------|----------------------------------------|
B|--------------------------7---------6----|-------------------------------|----------------------------------------|
G|-----------6---------6-------------------|---------------------------%---|-6---6---6--------------------%---------|
D|------6---------5------------------------|---------------------------%---|--------------7----6----7-----%----4----|
A|-----------------------------------------|-------------------------------|----------------------------------------|
E|-9---------------------------------------|-------------------------------|----------------------------------------|

E|-----------------------------------------|----------------------------------------|
B|-----------------------------------------|----------------------------------------|
G|---------------------4-------------------|-6---6---6--------------------%---------|
D|-4----4----6----7---------7----6----7----|--------------7----6----7-----%----4----|
A|-----------------------------------------|----------------------------------------|
E|-----------------------------------------|----------------------------------------|

E|-------------------------------------|-14-----14---14----14----|-14---14-----14----------|
B|-------------------------------------|-------------------------|-------------------------|
G|-------------------------------------|-------------------------|--------------------%----|
D|-4----4----6----7--------------------|-------------------------|--------------------%----|
A|---------------------4----4----7-----|-------------------------|-------------------------|
E|-------------------------------------|-------------------------|-------------------------|

E|-----------0----2----3---2---0--------------|-0----0------0-----------------|-----------------------------------------------|
B|------2--------------------------2-----2----|-------------------------------|-----------------------------------------------|
G|-%------------------------------------------|-----------------%----%--------|-------------------------------------1----2----|
D|-%------------------------------------------|-----------------%----%--------|-1---2---1------------1----2----4--------------|
A|--------------------------------------------|--------------------------4----|-------------4---4-----------------------------|
E|--------------------------------------------|-------------------------------|-----------------------------------------------|

E|----------------0------------------9----|-15---12--------16-------------15--------|
B|-0----2----4---------2-----2------------|-----------14--------17-------------17---|
G|-------------------------------%--------|--------------------------18-------------|
D|-------------------------------%--------|-----------------------------------------|
A|----------------------------------------|-----------------------------------------|
E|----------------------------------------|-----------------------------------------|

E|------16--------17-----17------|---------------------------------|-----------------------------------------|
B|-14--------17------------------|---------------------------------|-----------------------------------------|
G|---------------------------%---|-12-----11-------------11--------|------11-------------11------------------|
D|---------------------------%---|-12-----11-------------11--------|------11-------------11------------------|
A|-------------------------------|-10-----9----9----9----9----9----|-9----9----9----9----9----9----9----9----|
E|-------------------------------|---------------------------------|-----------------------------------------|

E|-------------------------|-----------------------------|---------------------------------|
B|-------------------------|-----------------------------|---------------------------------|
G|-12-----11---%-----9-----|-9----7----%-----9-----11----|-12-----11-------------11--------|
D|-12-----11---%-----9-----|-9----7----%-----9-----11----|-12-----11-------------11--------|
A|-10-----9----------7-----|-7----5----------7-----9-----|-10-----9----9----9----9----9----|
E|-------------------------|-----------------------------|---------------------------------|

E|-----------------------------------------|---------------------------------|-----------------------------------------|
B|-----------------------------------------|---------------------------------|-----------------------------------------|
G|------11-------------11------------------|-12-----11-------------11--------|------11-------------11------------------|
D|------11-------------11------------------|-12-----11-------------11--------|------11-------------11------------------|
A|-9----9----9----9----9----9----9----9----|-10-----9----9----9----9----9----|-9----9----9----9----9----9----9----9----|
E|-----------------------------------------|---------------------------------|-----------------------------------------|

E|-------------------------|--------------------|---------------------------------|
B|-------------------------|--------------------|---------------------------------|
G|-12-----11---%-----6-----|-6------9-----11----|-12-----11-------------11--------|
D|-12-----11---%-----6-----|-6------9-----11----|-12-----11-------------11--------|
A|-10-----9----------4-----|-4------7-----9-----|-10-----9----9----9----9----9----|
E|-------------------------|--------------------|---------------------------------|

E|-----------------------------------------|-------------------------|-----------------------------|
B|-----------------------------------------|-------------------------|-----------------------------|
G|------11-------------11------------------|-------------------------|-----------------------------|
D|------11-------------11------------------|-------------------------|-----------------------------|
A|-9----9----9----9----9----9----9----9----|-7------9----9-----5-----|-5----7----7-----4-----5-----|
E|-----------------------------------------|-------------------------|-----------------------------|

E|-------------------------|-----------------------------|-------------------------|
B|-------------------------|-----------------------------|-------------------------|
G|-------------------------|-----------------------------|-------------------------|
D|-------------------------|-----------------------------|-------------------------|
A|-7------9----9-----5-----|-5----7----7-----4-----5-----|-7------9----9-----5-----|
E|-------------------------|-----------------------------|-------------------------|

E|-----------------------------|---------|---------|---------|---------|---------|---------|
B|-----------------------------|---------|---------|---------|---------|---------|---------|
G|-----------------------------|---------|---------|---------|---------|-%-------|-%-------|
D|-----------------------------|---------|---------|---------|---------|-%-------|-%-------|
A|-5----7----7-----2-----2-----|-4-------|-4-------|-4-------|-4-------|---------|---------|
E|-----------------------------|---------|---------|---------|---------|---------|---------|

E|---------|---------|---------|---------|---------|---------|---------|---------|---------|
B|---------|---------|---------|---------|---------|---------|---------|---------|---------|
G|-%-------|-%-------|-%-------|-%-------|-%-------|-%-------|-%-------|-%-------|-%-------|
D|-%-------|-%-------|-%-------|-%-------|-%-------|-%-------|-%-------|-%-------|-%-------|
A|---------|---------|---------|---------|---------|---------|---------|---------|---------|
E|---------|---------|---------|---------|---------|---------|---------|---------|---------|

E|---------|---------|---------|---------|--------------------|-------------------------|
B|---------|---------|---------|---------|--------------------|-------------------------|
G|-%-------|-%-------|-%-------|-%-------|-%------%-----------|-6------7----7-----4-----|
D|-%-------|-%-------|-%-------|-%-------|-%------%-----------|-7------7----7-----4-----|
A|---------|---------|---------|---------|--------------------|-4------5----5-----2-----|
E|---------|---------|---------|---------|--------------14----|-5------5----5-----2-----|

E|-----------------------------|---------|---------|-------------------------|-----------------------------|
B|-----------------------------|---------|---------|-------------------------|-----------------------------|
G|-4----6----6-----2-----2-----|-7-------|-7-------|-6------7----7-----4-----|-4----6----6-----1-----1-----|
D|-4----6----6-----2-----2-----|-7-------|-7-------|-7------7----7-----4-----|-4----6----6-----2-----2-----|
A|-2----4----4-----0-----0-----|-5-------|-5-------|-4------5----5-----2-----|-2----4----4-----2-----2-----|
E|-2----4----4-----0-----0-----|-5-------|-5-------|-5------5----5-----2-----|-2----4----4-----0-----0-----|

E|---------|---------|-------------------------|-----------------------------|---------|
B|---------|---------|-------------------------|-----------------------------|---------|
G|-2-------|-2-------|-6------7----7-----4-----|-4----6----6-----2-----2-----|-7-------|
D|-4-------|-4-------|-7------7----7-----4-----|-4----6----6-----2-----2-----|-7-------|
A|-4-------|-4-------|-4------5----5-----2-----|-2----4----4-----0-----0-----|-5-------|
E|-2-------|-2-------|-5------5----5-----2-----|-2----4----4-----0-----0-----|-5-------|

E|---------|-------------------------|-----------------------------|-----------------------------------------|
B|---------|-------------------------|-----------------------------|-----------------------------------------|
G|-7-------|-6------7----7-----4-----|-4----6----6-----1-----1-----|--------------------------%--------------|
D|-7-------|-7------7----7-----4-----|-4----6----6-----2-----2-----|-4----4----4----4----4----%----4----4----|
A|-5-------|-4------5----5-----2-----|-2----4----4-----2-----2-----|-4----4----4----4----4---------4----4----|
E|-5-------|-5------5----5-----2-----|-2----4----4-----0-----0-----|-2----2----2----2----2---------2----2----|

E|-----------------------------------------|-----------------------------------------|
B|-----------------------------------------|-----------------------------------------|
G|----------------%-------------------%----|--------------------------%--------------|
D|-4----4----4----%----4----4----4----%----|-4----4----4----4----4----%----4----4----|
A|-4----4----4---------4----4----4---------|-4----4----4----4----4---------4----4----|
E|-2----2----2---------2----2----2---------|-2----2----2----2----2---------2----2----|

E|-------------------------------------|
B|-------------------------------------|
G|----------------%---------%----%-----|
D|-4----4----4----%----4----%----%-----|
A|-4----4----4---------4---------------|
E|-2----2----2---------2---------------|
Iron Maiden - Seventh Son Of A Seventh Son
Iron Maiden - Seventh Son Of A Seventh Son.gp3