Iron Maiden - Sign Of the Cross

Iron Maiden



Title: Sign Of the Cross
Album: The X Factor
Artist: Iron Maiden
Author: 

Track 1: Clean Guitar (intro)
E|----------------------------------------------|-------------------------------------------|
B|----------------------------------------------|---------------------------3---------------|
G|-%----2---4---5----4---%---2---4---5----4-----|-4----2---4---5----4---5---------5---4-----|
D|-%---------------------%----------------------|-------------------------------------------|
A|----------------------------------------------|-------------------------------------------|
E|----------------------------------------------|-------------------------------------------|

E|----------------------------------------------|----------------------------------------|
B|----------------------------------------------|----------------------------------------|
G|-4----2---4---5----4---%---2---4---5----4-----|-4--------------------------------------|
D|-----------------------%----------------------|------2---4---5-----4---5-----4---5-----|
A|----------------------------------------------|----------------------------------------|
E|----------------------------------------------|----------------------------------------|

E|----------------------------------------------|-------------------------------------------|
B|----------------------------------------------|---------------------------3---------------|
G|-%----2---4---5----4---%---2---4---5----4-----|-4----2---4---5----4---5---------5---4-----|
D|-%---------------------%----------------------|-------------------------------------------|
A|----------------------------------------------|-------------------------------------------|
E|----------------------------------------------|-------------------------------------------|

E|----------------------------------------------|----------------------------------------|
B|----------------------------------------------|----------------------------------------|
G|-4----2---4---5----4---%---2---4---5----4-----|-4--------------------------------------|
D|-----------------------%----------------------|------2---4---5-----4---5-----4---2-----|
A|----------------------------------------------|----------------------------------------|
E|----------------------------------------------|----------------------------------------|

E|-----------------------------------|--------------------------|--------------------------------|
B|-------------------12-12----12-----|-12------------12-12------|-12-------------12-12----12-----|
G|-%----%---------12-----------------|------------12------------|-------------12-----------------|
D|-%----%------12--------------------|---------12---------------|----------12--------------------|
A|----------12-----------------------|------12------------------|-------12-----------------------|
E|-----------------------------------|--------------------------|--------------------------------|

E|---------|--------------------------|--------------------------|-----------------------------------|
B|---------|------------------12------|------------------12------|-------------------12-12----12-----|
G|-%-------|---------------12---------|---------------12---------|----------------12-----------------|
D|-%-------|------------12------------|------------12------------|-------------12--------------------|
A|---------|---------12---------------|---------12---------------|----------12-----------------------|
E|---------|-12---12------------------|-12---12------------------|-12---12---------------------------|

E|---------|---------|---------|---------|---------|---------|---------|---------|---------|
B|---------|---------|---------|---------|---------|---------|---------|---------|---------|
G|-%-------|-%-------|-%-------|-%-------|-%-------|-%-------|-%-------|-%-------|-%-------|
D|-%-------|-%-------|-%-------|-%-------|-%-------|-%-------|-%-------|-%-------|-%-------|
A|---------|---------|---------|---------|---------|---------|---------|---------|---------|
E|---------|---------|---------|---------|---------|---------|---------|---------|---------|

E|---------|---------|---------|---------|---------|---------|---------|---------|---------|
B|---------|---------|---------|---------|---------|---------|---------|---------|---------|
G|-%-------|-%-------|-%-------|-%-------|-%-------|-%-------|-%-------|-%-------|-%-------|
D|-%-------|-%-------|-%-------|-%-------|-%-------|-%-------|-%-------|-%-------|-%-------|
A|---------|---------|---------|---------|---------|---------|---------|---------|---------|
E|---------|---------|---------|---------|---------|---------|---------|---------|---------|

E|---------|-------------------------------------------------|----------------------------------------------|
B|---------|-5-------5---7---8----7----7---------------------|-5-------5---7---8----7----7------------------|
G|-%-------|-----4-------------------------%---7-----4---4---|-----4-------------------------%---7-----7----|
D|-%-------|-------------------------------%-----------------|-------------------------------%--------------|
A|---------|-------------------------------------------------|----------------------------------------------|
E|---------|-------------------------------------------------|----------------------------------------------|

E|---------|---------|-------------------------------------------------|----------------------------------------------|
B|---------|---------|-5-------5---7---8----7----7---------------------|-5-------5---7---8----7----7------------------|
G|-%-------|-%-------|-----4-------------------------%---7-----4---4---|-----4-------------------------%---7-----7----|
D|-%-------|-%-------|-------------------------------%-----------------|-------------------------------%--------------|
A|---------|---------|-------------------------------------------------|----------------------------------------------|
E|---------|---------|-------------------------------------------------|----------------------------------------------|

E|---------|---------|-0-----------3----2---------0----|-0-------0---------|-3----------------0---------3----|
B|---------|---------|-3---------------------3----X----|-0-------0---------|-3-----------6--------------3----|
G|-%-------|-%-------|-2------%-------------------2----|-2-------2----%----|-5------%--------------5----0----|
D|-%-------|-%-------|-0------%-------------------2----|-2-------2----%----|-5------%------------------------|
A|---------|---------|-0-------------------------------|-------------------|-3-------------------------------|
E|---------|---------|---------------------------------|-------------------|---------------------------------|

E|-3-------|---------|---------|---------|---------|---------|---------|---------|---------|
B|-3-------|---------|---------|---------|---------|---------|---------|---------|---------|
G|-0-------|-%-------|-%-------|-%-------|-%-------|-%-------|-%-------|-%-------|-%-------|
D|---------|-%-------|-%-------|-%-------|-%-------|-%-------|-%-------|-%-------|-%-------|
A|---------|---------|---------|---------|---------|---------|---------|---------|---------|
E|---------|---------|---------|---------|---------|---------|---------|---------|---------|

E|---------|---------|-7-------|-7------7----7----5-----3----|-3-------|-3------3----3----5-----7----|
B|---------|---------|-7-------|-7------7----7----5-----3----|-3-------|-3------3----3----5-----7----|
G|-%-------|-%-------|-9-------|-9------9----9----7-----5----|-5-------|-5------5----5----7-----9----|
D|-%-------|-%-------|-9-------|-9------9----9----7-----5----|-5-------|-5------5----5----7-----9----|
A|---------|---------|-7-------|-7------7----7----5-----3----|-3-------|-3------3----3----5-----7----|
E|---------|---------|---------|-----------------------------|---------|-----------------------------|

E|-7-------|-7------7----7----5-----3----|-3-------|-3------3----3----2-----5----|-5-------|
B|-7-------|-7------7----7----5-----3----|-3-------|-3------3----3----2-----5----|-5-------|
G|-9-------|-9------9----9----7-----5----|-5-------|-5------5----5----4-----2----|-2-------|
D|-9-------|-9------9----9----7-----5----|-5-------|-5------5----5----4-----2----|-2-------|
A|-7-------|-7------7----7----5-----3----|-3-------|-3------3----3----2-----0----|-0-------|
E|---------|-----------------------------|---------|------------------------0----|-0-------|

E|-5------3----3----5-----7----|-7-------|-7-------7----0----|-0-------|-0-------|-------------------------|
B|-5------3----3----5-----7----|-7-------|-7-------7----0----|-0-------|-0-------|-------------------------|
G|-2------5----5----7-----9----|-9-------|-9-------9----0----|-0-------|-0-------|-----4-------4---3-------|
D|-2------5----5----7-----9----|-9-------|-9-------9----4----|-4-------|-4-------|-2-------2---------------|
A|-0------3----3----5-----7----|-7-------|-7-------7----2----|-2-------|-2-------|-------------------------|
E|-0---------------------------|---------|--------------0----|-0-------|-0-------|-------------------------|

E|------------------------------------------|------------------------------|------------------------------------------|
B|------------------------------------------|------------------------------|------------------------------------------|
G|-----4-------4---3---3---2----2------2----|-----4-------4---3-------3----|-----4-------4-------3---2----2------%----|
D|-2-------2-------2-------2----2------2----|-2-------2--------------------|-2-------2-------2-------------------%----|
A|------------------------------------------|------------------------------|------------------------------------------|
E|------------------------------------------|------------------------------|------------------------------------------|

E|-------------------------|------------------------------------------|-------------------------|
B|-------------------------|------------------------------------------|-------------------------|
G|-----2-------2---1-------|-----2-------2-------1---0----0------%----|-----4-------4---3-------|
D|-0-------0---------------|-0-------0-------0-------------------%----|-2-------2---------------|
A|-------------------------|------------------------------------------|-------------------------|
E|-------------------------|------------------------------------------|-------------------------|

E|--------------------------------------|---------|-------------|---------|---------|
B|--------------------------------------|---------|-------------|---------|---------|
G|-----4-------4-------3---2----2-------|-%-------|-%------%----|-%-------|-%-------|
D|-2-------2-------2-------2----2-------|-%-------|-%------%----|-%-------|-%-------|
A|--------------------------------------|---------|-------------|---------|---------|
E|--------------------------------------|---------|-------------|---------|---------|

E|--------|-------------|---------|---------|-------------|---------|---------|--------|
B|--------|-------------|---------|---------|-------------|---------|---------|--------|
G|-%------|-%------%----|-%-------|-%-------|-%------%----|-%-------|-%-------|-%------|
D|-%------|-%------%----|-%-------|-%-------|-%------%----|-%-------|-%-------|-%------|
A|--------|-------------|---------|---------|-------------|---------|---------|--------|
E|--------|-------------|---------|---------|-------------|---------|---------|--------|

E|-------------|---------|---------|-------------|---------|---------|--------|-------------|
B|-------------|---------|---------|-------------|---------|---------|--------|-------------|
G|-%------%----|-%-------|-%-------|-%------%----|-%-------|-%-------|-%------|-%------%----|
D|-%------%----|-%-------|-%-------|-%------%----|-%-------|-%-------|-%------|-%------%----|
A|-------------|---------|---------|-------------|---------|---------|--------|-------------|
E|-------------|---------|---------|-------------|---------|---------|--------|-------------|

E|---------|---------|-------------|---------|---------|--------|-------------|-------------------|
B|---------|---------|-------------|---------|---------|--------|-------------|-------------------|
G|-%-------|-%-------|-%------%----|-%-------|-%-------|-%------|-%------%----|-%------%-----%----|
D|-%-------|-%-------|-%------%----|-%-------|-%-------|-%------|-%------%----|-%------%-----%----|
A|---------|---------|-------------|---------|---------|--------|-------------|-------------------|
E|---------|---------|-------------|---------|---------|--------|-------------|-------------------|

E|---------|---------|---------|---------|---------|---------|---------|---------|---------|
B|---------|---------|---------|---------|---------|---------|---------|---------|---------|
G|-%-------|-%-------|-%-------|-%-------|-%-------|-%-------|-%-------|-%-------|-%-------|
D|-%-------|-%-------|-%-------|-%-------|-%-------|-%-------|-%-------|-%-------|-%-------|
A|---------|---------|---------|---------|---------|---------|---------|---------|---------|
E|---------|---------|---------|---------|---------|---------|---------|---------|---------|

E|---------|---------|---------|---------|---------|---------|--------------|---------|
B|---------|---------|---------|---------|---------|---------|--------------|---------|
G|-%-------|-%-------|-%-------|-%-------|-%-------|-%-------|-%-------%----|-%-------|
D|-%-------|-%-------|-%-------|-%-------|-%-------|-%-------|-%-------%----|-%-------|
A|---------|---------|---------|---------|---------|---------|--------------|---------|
E|---------|---------|---------|---------|---------|---------|--------------|---------|

E|---------|---------|---------|---------|---------|---------|---------|---------|---------|
B|---------|---------|---------|---------|---------|---------|---------|---------|---------|
G|-%-------|-%-------|-%-------|-%-------|-%-------|-%-------|-%-------|-%-------|-%-------|
D|-%-------|-%-------|-%-------|-%-------|-%-------|-%-------|-%-------|-%-------|-%-------|
A|---------|---------|---------|---------|---------|---------|---------|---------|---------|
E|---------|---------|---------|---------|---------|---------|---------|---------|---------|

E|---------|---------|---------|---------|---------|---------|---------|---------|---------|
B|---------|---------|---------|---------|---------|---------|---------|---------|---------|
G|-%-------|-%-------|-%-------|-%-------|-%-------|-%-------|-%-------|-%-------|-%-------|
D|-%-------|-%-------|-%-------|-%-------|-%-------|-%-------|-%-------|-%-------|-%-------|
A|---------|---------|---------|---------|---------|---------|---------|---------|---------|
E|---------|---------|---------|---------|---------|---------|---------|---------|---------|

E|---------|---------|---------|---------|---------|---------|---------|---------|---------|
B|---------|---------|---------|---------|---------|---------|---------|---------|---------|
G|-%-------|-%-------|-%-------|-%-------|-%-------|-%-------|-%-------|-%-------|-%-------|
D|-%-------|-%-------|-%-------|-%-------|-%-------|-%-------|-%-------|-%-------|-%-------|
A|---------|---------|---------|---------|---------|---------|---------|---------|---------|
E|---------|---------|---------|---------|---------|---------|---------|---------|---------|

E|---------|---------|---------|---------|---------|---------|---------|---------|---------|
B|---------|---------|---------|---------|---------|---------|---------|---------|---------|
G|-%-------|-%-------|-%-------|-%-------|-%-------|-%-------|-%-------|-%-------|-%-------|
D|-%-------|-%-------|-%-------|-%-------|-%-------|-%-------|-%-------|-%-------|-%-------|
A|---------|---------|---------|---------|---------|---------|---------|---------|---------|
E|---------|---------|---------|---------|---------|---------|---------|---------|---------|

E|---------|---------|---------|---------|---------|---------|---------|---------|---------|
B|---------|---------|---------|---------|---------|---------|---------|---------|---------|
G|-%-------|-%-------|-%-------|-%-------|-%-------|-%-------|-%-------|-%-------|-%-------|
D|-%-------|-%-------|-%-------|-%-------|-%-------|-%-------|-%-------|-%-------|-%-------|
A|---------|---------|---------|---------|---------|---------|---------|---------|---------|
E|---------|---------|---------|---------|---------|---------|---------|---------|---------|

E|---------|---------|---------|---------|---------|---------|---------|---------|---------|
B|---------|---------|---------|---------|---------|---------|---------|---------|---------|
G|-%-------|-%-------|-%-------|-%-------|-%-------|-%-------|-%-------|-%-------|-%-------|
D|-%-------|-%-------|-%-------|-%-------|-%-------|-%-------|-%-------|-%-------|-%-------|
A|---------|---------|---------|---------|---------|---------|---------|---------|---------|
E|---------|---------|---------|---------|---------|---------|---------|---------|---------|

E|---------|---------|---------|---------|---------|---------|---------|---------|---------|
B|---------|---------|---------|---------|---------|---------|---------|---------|---------|
G|-%-------|-%-------|-%-------|-%-------|-%-------|-%-------|-%-------|-%-------|-%-------|
D|-%-------|-%-------|-%-------|-%-------|-%-------|-%-------|-%-------|-%-------|-%-------|
A|---------|---------|---------|---------|---------|---------|---------|---------|---------|
E|---------|---------|---------|---------|---------|---------|---------|---------|---------|

E|---------|---------|---------|---------|---------|---------|---------|---------|---------|
B|---------|---------|---------|---------|---------|---------|---------|---------|---------|
G|-%-------|-%-------|-%-------|-%-------|-%-------|-%-------|-%-------|-%-------|-%-------|
D|-%-------|-%-------|-%-------|-%-------|-%-------|-%-------|-%-------|-%-------|-%-------|
A|---------|---------|---------|---------|---------|---------|---------|---------|---------|
E|---------|---------|---------|---------|---------|---------|---------|---------|---------|

E|---------|---------|---------|-------0-------|-------3-------|-------3-------|-------5-----3---3--------5---5--------|
B|---------|---------|---------|-------0-------|-------3-------|-------3-------|-------5-----3---3--------5---5--------|
G|-%-------|-%-------|-%-------|---------------|-5-------------|-------0-------|-7-----------5---5---%----7---7---%----|
D|-%-------|-%-------|-%-------|---------------|-5-------------|-0-------------|-7-----------3---3---%----7---7---%----|
A|---------|---------|---------|---------------|-3-------------|-X-------------|-5-----------3---3--------5---5--------|
E|---------|---------|---------|-0-------------|---------------|-3-------------|---------------------------------------|

E|-------0-------|-------3-------|-------3------3----------------|-------5-----3---3--------5---5--------|
B|-------0-------|-------3-------|-------3------3----------------|-------5-----3---3--------5---5--------|
G|---------------|-5-------------|-0-----0------0----7---7---7---|-7-----7-----5---5---%----7---7---%----|
D|---------------|-5-------------|-0-----------------7---7---7---|-7-----7-----3---3---%----7---7---%----|
A|---------------|-3-------------|-X-----------------5---5---5---|-5-----5-----3---3--------5---5--------|
E|-0-------------|---------------|-3-----------------------------|---------------------------------------|

E|---------|---------|---------|---------|---------|---------|---------|---------|---------|
B|---------|---------|---------|---------|---------|---------|---------|---------|---------|
G|-%-------|-%-------|-%-------|-%-------|-%-------|-%-------|-%-------|-%-------|-%-------|
D|-%-------|-%-------|-%-------|-%-------|-%-------|-%-------|-%-------|-%-------|-%-------|
A|---------|---------|---------|---------|---------|---------|---------|---------|---------|
E|---------|---------|---------|---------|---------|---------|---------|---------|---------|

E|---------|---------|---------|---------|--------------------------0--------------|
B|---------|---------|---------|---------|---------------------6-------------------|
G|-%-------|-%-------|-%-------|-%-------|-----------5-------------------5---------|
D|-%-------|-%-------|-%-------|-%-------|------5---------5-------------------5----|
A|---------|---------|---------|---------|-3---------------------------------------|
E|---------|---------|---------|---------|-----------------------------------------|

E|-----------------------------------------|-----------------------------------------|
B|--------------------------0--------------|---------------------8----7--------------|
G|---------------------5-------------------|-----------7-------------------7---------|
D|-----------5-------------------5---------|------7---------7-------------------7----|
A|------5---------5-------------------5----|-5---------------------------------------|
E|-3---------------------------------------|-----------------------------------------|

E|-------------------------------------|--------------------------0--------------|-----------------------------------------|
B|-------------------------------------|---------------------6-------------------|--------------------------0--------------|
G|---------------------7----6----------|-----------5-------------------5---------|---------------------5-------------------|
D|-----------7-------------------7-----|------5---------5-------------------5----|-----------5-------------------5---------|
A|------7---------7--------------------|-3---------------------------------------|------5---------5-------------------5----|
E|-5-----------------------------------|-----------------------------------------|-3---------------------------------------|

E|----------------------------|----------------------------------------------|----------------------------------------------|
B|----------------------------|----------------------------------------------|------------------------------3---------------|
G|-----------9----------------|-%----2---4---5----4---%---2---4---5----4-----|-4---%---2---4---5----4---5---------5---4-----|
D|------9---------9----9------|-%---------------------%----------------------|-----%----------------------------------------|
A|-7--------------------------|----------------------------------------------|----------------------------------------------|
E|----------------------------|----------------------------------------------|----------------------------------------------|

E|----------------------------------------------|-------------------------------------------|
B|----------------------------------------------|-------------------------------------------|
G|-4----2---4---5----4---%---2---4---5----4-----|-4---%-------------------------------------|
D|-----------------------%----------------------|-----%---2---4---5-----4---5-----4---2-----|
A|----------------------------------------------|-------------------------------------------|
E|----------------------------------------------|-------------------------------------------|

E|---------|---------|
B|---------|---------|
G|---------|-%-------|
D|-2-------|-%-------|
A|---------|---------|
E|---------|---------|
Iron Maiden - Sign Of the Cross
Iron Maiden - Sign Of the Cross.gp3