Iron Maiden - Sign Of The Cross Live solo

Iron Maiden



Title: Sign Of The Cross Live solo
Album: Rock In Rio
Artist: Iron Maiden
Author: Steve Harris, Blaze Bayley, Janick Gers

Track 1: Dave
E|------------------------|-----------------------------------------|-----------------------------------------|
B|------------------------|-----------12---12---10------------------|-----------12---12---10------------------|
G|-%------%-----%----9----|-9----9-------------------12---11---9----|-9----9-------------------12---11---9----|
D|-%------%-----%---------|-----------------------------------------|-----------------------------------------|
A|------------------------|-----------------------------------------|-----------------------------------------|
E|------------------------|-----------------------------------------|-----------------------------------------|

E|---------|-------------------------------------|-----------------------------------------|
B|---------|-------------------------------------|------12---12---10-----------------------|
G|-9-------|------12--------12----7----9----9----|-9-------------------12---11---9----9----|
D|---------|-12--------12------------------------|-----------------------------------------|
A|---------|-------------------------------------|-----------------------------------------|
E|---------|-------------------------------------|-----------------------------------------|

E|-----------------------------------------|---------|-------------------------------------|
B|------12---12---10-----------------------|---------|-------------------------------------|
G|-9-------------------12---11---9----9----|-9-------|------12--------12----7----9----9----|
D|-----------------------------------------|---------|-12--------12------------------------|
A|-----------------------------------------|---------|-------------------------------------|
E|-----------------------------------------|---------|-------------------------------------|

E|-----------------------------------------|-----------------------------------------|
B|------12---12---10-----------------------|------12---12---10-----------------------|
G|-9-------------------12---11---9----9----|-9-------------------12---11---9----9----|
D|-----------------------------------------|-----------------------------------------|
A|-----------------------------------------|-----------------------------------------|
E|-----------------------------------------|-----------------------------------------|

E|---------|-------------------------------------|-----------------------------------------|
B|---------|-------------------------------------|------12---12---10-----------------------|
G|-9-------|------12--------12----7----9----9----|-9-------------------12---11---9----9----|
D|---------|-12--------12------------------------|-----------------------------------------|
A|---------|-------------------------------------|-----------------------------------------|
E|---------|-------------------------------------|-----------------------------------------|

E|-----------------------------------------|---------|-------------------------------------|
B|------12---12---10-----------------------|---------|-------------------------------------|
G|-9-------------------12---11---9----9----|-9-------|------12--------12----7----7----7----|
D|-----------------------------------------|---------|-12--------12------------------------|
A|-----------------------------------------|---------|-------------------------------------|
E|-----------------------------------------|---------|-------------------------------------|

E|-12--7---10--12--7---10--14--7---10--15--7---10--14--7---10--15--|-7---10--17--7---10--17--7---10--15--5---7---15--5---7---14--5---|
B|-----------------------------------------------------------------|-----------------------------------------------------------------|
G|-----------------------------------------------------------------|-----------------------------------------------------------------|
D|-----------------------------------------------------------------|-----------------------------------------------------------------|
A|-----------------------------------------------------------------|-----------------------------------------------------------------|
E|-----------------------------------------------------------------|-----------------------------------------------------------------|

E|-7---12--5---7---14--5---7---12--5---7---10--3---5---8---3---5---|-8---3---5---------------------------12--7---10--12--7---10--14--|
B|-----------------------------------------------------------------|-------------10--3---5---10--5---7-------------------------------|
G|-----------------------------------------------------------------|-----------------------------------------------------------------|
D|-----------------------------------------------------------------|-----------------------------------------------------------------|
A|-----------------------------------------------------------------|-----------------------------------------------------------------|
E|-----------------------------------------------------------------|-----------------------------------------------------------------|

E|-7---10--15--7---10--17--5---7---17--7---10--15--7---10--12--5---|-7---14--5---7---15--3---5---17--3---5---12--3---5---12--5---7---|
B|-----------------------------------------------------------------|-----------------------------------------------------------------|
G|-----------------------------------------------------------------|-----------------------------------------------------------------|
D|-----------------------------------------------------------------|-----------------------------------------------------------------|
A|-----------------------------------------------------------------|-----------------------------------------------------------------|
E|-----------------------------------------------------------------|-----------------------------------------------------------------|

E|-10--3---5---10--3---5-------------------------------------------|---------------------14--5---7---15--7---10--17--7---10--15--7---|
B|-------------------------8---3---5---10--5---7---10--3---5---15--|-3---5---17--5---7-----------------------------------------------|
G|-----------------------------------------------------------------|-----------------------------------------------------------------|
D|-----------------------------------------------------------------|-----------------------------------------------------------------|
A|-----------------------------------------------------------------|-----------------------------------------------------------------|
E|-----------------------------------------------------------------|-----------------------------------------------------------------|

E|----------------------------------------|--------------------|-----------------------------------------------------------------|
B|-8---10--8---10--8---10--X---10---------|--------------------|-5---3---0---5---3---0---5---3-----------------------------------|
G|---------------------------------7------|-7-----7------7-----|---------------------------------2---0---0---X---0---2---0---2---|
D|----------------------------------------|--------------------|-----------------------------------------------------------------|
A|----------------------------------------|--------------------|-----------------------------------------------------------------|
E|----------------------------------------|--------------------|-----------------------------------------------------------------|

E|-------------7---------------------------------------|-20--19--17--20--19--17------------------------------------------|
B|-----------------------------------------------------|-------------------------20--19--17--------------17--20--17--17--|
G|------------------------------2---0-------------17---|-------------------------------------19--17--19------------------|
D|-2---5---2---0---2---0---2------------2----2---------|-----------------------------------------------------------------|
A|-----------------------------------------------------|-----------------------------------------------------------------|
E|-----------------------------------------------------|-----------------------------------------------------------------|

E|-20---20----------------------------------------------------|-----------------------------------------------------------------|
B|----------19--20--19--19------------------------------------|-12--15--15--17--20----------20--17------------------------------|
G|--------------------------17------------19------------------|---------------------17--19----------19--17--19--17--19--19--17--|
D|------------------------------17---17--------17---19---19---|-----------------------------------------------------------------|
A|------------------------------------------------------------|-----------------------------------------------------------------|
E|------------------------------------------------------------|-----------------------------------------------------------------|

E|------------------------|---------|---------|---------|---------|---------|---------|
B|------------------------|---------|---------|---------|---------|---------|---------|
G|-17---19---19-----19----|-19------|-19------|-19------|-%-------|-%-------|-%-------|
D|------------------------|---------|---------|---------|-%-------|-%-------|-%-------|
A|------------------------|---------|---------|---------|---------|---------|---------|
E|------------------------|---------|---------|---------|---------|---------|---------|

E|---------|---------|---------|---------|---------|---------|---------|---------|---------|
B|---------|---------|---------|---------|---------|---------|---------|---------|---------|
G|-%-------|-%-------|-%-------|-%-------|-%-------|-%-------|-%-------|-%-------|-%-------|
D|-%-------|-%-------|-%-------|-%-------|-%-------|-%-------|-%-------|-%-------|-%-------|
A|---------|---------|---------|---------|---------|---------|---------|---------|---------|
E|---------|---------|---------|---------|---------|---------|---------|---------|---------|

E|---------|------------------------|-----------------------------------------|-----------------------------------------|
B|---------|------------------------|-----------12---12---10------------------|-----------12---12---10------------------|
G|-%-------|-%------%-----%----9----|-9----9-------------------12---11---9----|-9----9-------------------12---11---9----|
D|-%-------|-%------%-----%---------|-----------------------------------------|-----------------------------------------|
A|---------|------------------------|-----------------------------------------|-----------------------------------------|
E|---------|------------------------|-----------------------------------------|-----------------------------------------|

E|---------|-------------------------------------|-----------------------------------------|
B|---------|-------------------------------------|------12---12---10-----------------------|
G|-9-------|------12--------12----7----9----9----|-9-------------------12---11---9----9----|
D|---------|-12--------12------------------------|-----------------------------------------|
A|---------|-------------------------------------|-----------------------------------------|
E|---------|-------------------------------------|-----------------------------------------|

E|-----------------------------------------|---------|-------------------------------------|
B|------12---12---10-----------------------|---------|-------------------------------------|
G|-9-------------------12---11---9----9----|-9-------|------12--------12----7----9----9----|
D|-----------------------------------------|---------|-12--------12------------------------|
A|-----------------------------------------|---------|-------------------------------------|
E|-----------------------------------------|---------|-------------------------------------|

E|-----------------------------------------|-----------------------------------------|
B|------12---12---10-----------------------|------12---12---10-----------------------|
G|-9-------------------12---11---9----9----|-9-------------------12---11---9----9----|
D|-----------------------------------------|-----------------------------------------|
A|-----------------------------------------|-----------------------------------------|
E|-----------------------------------------|-----------------------------------------|

E|---------|-------------------------------------|-----------------------------------------|
B|---------|-------------------------------------|------12---12---10-----------------------|
G|-9-------|------12--------12----7----9----9----|-9-------------------12---11---9----9----|
D|---------|-12--------12------------------------|-----------------------------------------|
A|---------|-------------------------------------|-----------------------------------------|
E|---------|-------------------------------------|-----------------------------------------|

E|-----------------------------------------|---------|-------------------------------------|
B|------12---12---10-----------------------|---------|-------------------------------------|
G|-9-------------------12---11---9----9----|-9-------|------12--------12----7----7----7----|
D|-----------------------------------------|---------|-12--------12------------------------|
A|-----------------------------------------|---------|-------------------------------------|
E|-----------------------------------------|---------|-------------------------------------|

E|---------------|---------|---------|---------|
B|---------------|---------|---------|---------|
G|-7------%------|-%-------|-%-------|-%-------|
D|--------%------|-%-------|-%-------|-%-------|
A|---------------|---------|---------|---------|
E|---------------|---------|---------|---------|
Iron Maiden - Sign Of The Cross Live solo
Iron Maiden - Sign Of The Cross Live solo.gp3