Iron Maiden - Stanger in a Strange Land

Iron Maiden



Title: Stanger in a Strange Land
Album: 
Artist: Iron Maiden
Author: 

Track 1: Guitar (Dave)
E|---------|---------|---------|---------|-----------------------------------------|
B|---------|---------|---------|---------|-----------------------------------------|
G|-%-------|-%-------|-%-------|-%-------|-----------------------------------------|
D|-%-------|-%-------|-%-------|-%-------|------9----8---------7---------4----5----|
A|---------|---------|---------|---------|------7----7---------7---------4----5----|
E|---------|---------|---------|---------|-0--------------0---------0--------------|

E|-------------------------------------|-----------------------------------------|-------------------------------------|
B|-------------------------------------|-----------------------------------------|-------------------------------------|
G|-------------------------------------|-----------------------------------------|-------------------------------------|
D|------9----8---------7---------5-----|------9----8---------7---------4----5----|------9----8---------7---------5-----|
A|------7----7---------7---------5-----|------7----7---------7---------4----5----|------7----7---------7---------5-----|
E|-0--------------0---------0----------|-0--------------0---------0--------------|-0--------------0---------0----------|

E|-----------------------------------------|-------------------------------------|-----------------------------------------|
B|-----------------------------------------|-------------------------------------|-----------------------------------------|
G|-----------------------------------------|-------------------------------------|-----------------------------------------|
D|------9----8---------7---------4----5----|------9----8---------7---------5-----|------9----8---------7---------4----5----|
A|------7----7---------7---------4----5----|------7----7---------7---------5-----|------7----7---------7---------4----5----|
E|-0--------------0---------0--------------|-0--------------0---------0----------|-0--------------0---------0--------------|

E|--------------------------------------------|----------------------------------------|
B|--------------------------------------------|----------------------------------------|
G|--------------------------------------------|-----------0----0----0-----0------------|
D|------9----8---------7---------5------------|------0---------0----0-----0------------|
A|------7----7---------7---------5----0---2---|-3----3---------2----2-----2----0---2---|
E|-0--------------0---------0-----------------|----------------------------------------|

E|----------------------------|-----------------------------------------|--------------------------------------------|
B|----------------------------|-----------------------------------------|--------------------------------------------|
G|-----------0----0----0------|-----------------------------------------|--------------------------------------------|
D|------0---------0----0------|------9----8---------7---------4----5----|------9----8---------7---------5------------|
A|-3--------------2----2------|------7----7---------7---------4----5----|------7----7---------7---------5----0---2---|
E|----------------------------|-0--------------0---------0--------------|-0--------------0---------0-----------------|

E|----------------------------------------|----------------------------|---------|---------|
B|----------------------------------------|----------------------------|---------|---------|
G|-----------0----0----0-----0------------|-----------0----0----0------|---------|---------|
D|------0---------0----0-----0------------|------0---------0----0------|---------|---------|
A|-3----3---------2----2-----2----0---2---|-3--------------2----2------|---------|---------|
E|----------------------------------------|----------------------------|-0-------|-0-------|

E|---------|----------------------|---------|---------|---------|------------7----5-------------------------|
B|---------|----------------------|---------|---------|---------|---------------------7---------------------|
G|---------|---------%------------|---------|---------|---------|-------------------------7----%------------|
D|---------|---------%------------|---------|---------|---------|------------------------------%------------|
A|---------|--------------5---7---|---------|---------|---------|-----------------------------------0---2---|
E|-0-------|-0------------0-------|-0-------|-0-------|-0-------|-0-----0-----------------------------------|

E|----------------------------------------|----------------------------|----------------------------------------------------|
B|----------------------------------------|----------------------------|----------------------------------------------------|
G|-----------0----0----0-----0------------|-----------0----0----0------|----------------------------------------------------|
D|------0---------0----0-----0------------|------0---------0----0------|----------------------------------------------------|
A|-3----3---------2----2-----2----0---2---|-3--------------2----2------|-------------5---5----------------------------------|
E|----------------------------------------|----------------------------|-0---3---5-----------5---7---7---7----5---5---7-----|

E|-----------------------------------------------------------|----------------------------------------|
B|-----------------------------------------------------------|----------------------------------------|
G|-----------------------------------------------------------|-----------0----0----0-----0------------|
D|-----------------------------------------------------------|------0---------0----0-----0------------|
A|-------------5---5---------------------------------0---2---|-3----3---------2----2-----2----0---2---|
E|-0---3---5-----------5---7---7---7----5---5---7------------|----------------------------------------|

E|----------------------------|----------------------------------------------------|
B|----------------------------|----------------------------------------------------|
G|-----------0----0----0------|----------------------------------------------------|
D|------0---------0----0------|----------------------------------------------------|
A|-3--------------2----2------|-------------5---5----------------------------------|
E|----------------------------|-0---3---5-----------5---7---7---7----5---5---7-----|

E|-----------------------------------------------------------|-----------------------------------------|
B|-----------------------------------------------------------|-----------------------------------------|
G|-----------------------------------------------------------|-----------------------------------------|
D|-----------------------------------------------------------|-4----4----4----4----4----4----4----4----|
A|-------------5---5---------------------------------0---2---|-2----2----2----2----2----2----2----2----|
E|-0---3---5-----------5---7---7---7----5---5---7------------|-----------------------------------------|

E|-----------------------------------------|-----------------------------------------|
B|-----------------------------------------|-----------------------------------------|
G|-----------------------------------------|-----------------------------------------|
D|-5----5----5----5----7----7----7----7----|------9----8---------7---------4----5----|
A|-3----3----3----3----5----5----5----5----|------7----7---------7---------4----5----|
E|-----------------------------------------|-0--------------0---------0--------------|

E|-------------------------------------|-----------------------------------------|-------------------------------------|
B|-------------------------------------|-----------------------------------------|-------------------------------------|
G|-------------------------------------|-----------------------------------------|-------------------------------------|
D|------9----8---------7---------5-----|------9----8---------7---------4----5----|------9----8---------7---------5-----|
A|------7----7---------7---------5-----|------7----7---------7---------4----5----|------7----7---------7---------5-----|
E|-0--------------0---------0----------|-0--------------0---------0--------------|-0--------------0---------0----------|

E|-----------------------------------------|-------------------------------------|-----------------------------------------|
B|-----------------------------------------|-------------------------------------|-----------------------------------------|
G|-----------------------------------------|-------------------------------------|-----------------------------------------|
D|------9----8---------7---------4----5----|------9----8---------7---------5-----|------9----8---------7---------4----5----|
A|------7----7---------7---------4----5----|------7----7---------7---------5-----|------7----7---------7---------4----5----|
E|-0--------------0---------0--------------|-0--------------0---------0----------|-0--------------0---------0--------------|

E|-------------------------------------|---------|---------|---------|----------------------|
B|-------------------------------------|---------|---------|---------|----------------------|
G|-------------------------------------|---------|---------|---------|---------%------------|
D|------9----8---------7---------5-----|---------|---------|---------|---------%------------|
A|------7----7---------7---------5-----|---------|---------|---------|--------------5---7---|
E|-0--------------0---------0----------|-0-------|-0-------|-0-------|-0------------0-------|

E|---------|---------|---------|------------7----5-------------------------|----------------------------------------|
B|---------|---------|---------|---------------------7---------------------|----------------------------------------|
G|---------|---------|---------|-------------------------7----%------------|-----------0----0----0-----0------------|
D|---------|---------|---------|------------------------------%------------|------0---------0----0-----0------------|
A|---------|---------|---------|-----------------------------------0---2---|-3----3---------2----2-----2----0---2---|
E|-0-------|-0-------|-0-------|-0-----0-----------------------------------|----------------------------------------|

E|----------------------------|----------------------------------------------------|
B|----------------------------|----------------------------------------------------|
G|-----------0----0----0------|----------------------------------------------------|
D|------0---------0----0------|----------------------------------------------------|
A|-3--------------2----2------|-------------5---5----------------------------------|
E|----------------------------|-0---3---5-----------5---7---7---7----5---5---7-----|

E|-----------------------------------------------------------|----------------------------------------|
B|-----------------------------------------------------------|----------------------------------------|
G|-----------------------------------------------------------|-----------0----0----0-----0------------|
D|-----------------------------------------------------------|------0---------0----0-----0------------|
A|-------------5---5---------------------------------0---2---|-3----3---------2----2-----2----0---2---|
E|-0---3---5-----------5---7---7---7----5---5---7------------|----------------------------------------|

E|----------------------------|-----------------------------------------|-----------------------------------------|
B|----------------------------|-----------------------------------------|-----------------------------------------|
G|-----------0----0----0------|-----------------------------------------|-----------------------------------------|
D|------0---------0----0------|-4----4----4----4----4----4----4----4----|-5----5----5----5----7----7----7----7----|
A|-3--------------2----2------|-2----2----2----2----2----2----2----2----|-3----3----3----3----5----5----5----5----|
E|----------------------------|-----------------------------------------|-----------------------------------------|

E|-----------------------------------------|-----------------------------------------|
B|-----------------------------------------|-----------------------------------------|
G|-----------------------------------------|-----------------------------------------|
D|-2----2----2----2----4----4----4----4----|-5----5----5----5----7----7----7----7----|
A|-0----0----0----0----2----2----2----2----|-3----3----3----3----5----5----5----5----|
E|-----------------------------------------|-----------------------------------------|

E|-----------------------------------------|-----------------------------------------|
B|-----------------------------------------|-----------------------------------------|
G|-----------------------------------------|-----------------------------------------|
D|-9----9----9----9----12---12---12---12---|-12---12---12---12---14---14---14---14---|
A|-7----7----7----7----9----9----9----9----|-10---10---10---10---12---12---12---12---|
E|-----------------------------------------|-----------------------------------------|

E|-----------------------------------------|-----------------------------------------|
B|-----------------------------------------|-----------------------------------------|
G|-----------------------------------------|-----------------------------------------|
D|-5----5----5----5----7----7----7----7----|-9----9----9----9----12---12---12---14---|
A|-3----3----3----3----5----5----5----5----|-7----7----7----7----9----9----10---12---|
E|-----------------------------------------|-----------------------------------------|

E|-----------------------------------------|-----------------------------------------|
B|-----------------------------------------|-----------------------------------------|
G|-----------------------------------------|-----------------------------------------|
D|-4----4----4----4----4----4----4----4----|-5----5----5----5----7----7----7----7----|
A|-2----2----2----2----2----2----2----2----|-3----3----3----3----5----5----5----5----|
E|-----------------------------------------|-----------------------------------------|

E|-----------------------------------------|-------------------------------------|-----------------------------------------|
B|-----------------------------------------|-------------------------------------|-----------------------------------------|
G|-----------------------------------------|-------------------------------------|-----------------------------------------|
D|------9----8---------7---------4----5----|------9----8---------7---------5-----|------9----8---------7---------4----5----|
A|------7----7---------7---------4----5----|------7----7---------7---------5-----|------7----7---------7---------4----5----|
E|-0--------------0---------0--------------|-0--------------0---------0----------|-0--------------0---------0--------------|

E|-------------------------------------|-----------------------------------------|-------------------------------------|
B|-------------------------------------|-----------------------------------------|-------------------------------------|
G|-------------------------------------|-----------------------------------------|-------------------------------------|
D|------9----8---------7---------5-----|------9----8---------7---------4----5----|------9----8---------7---------5-----|
A|------7----7---------7---------5-----|------7----7---------7---------4----5----|------7----7---------7---------5-----|
E|-0--------------0---------0----------|-0--------------0---------0--------------|-0--------------0---------0----------|

E|-----------------------------------------|-------------------------------------|---------|
B|-----------------------------------------|-------------------------------------|---------|
G|-----------------------------------------|-------------------------------------|---------|
D|------9----8---------7---------4----5----|------9----8---------7---------5-----|-2-------|
A|------7----7---------7---------4----5----|------7----7---------7---------5-----|-2-------|
E|-0--------------0---------0--------------|-0--------------0---------0----------|-0-------|

E|---------|---------|---------|---------|---------|---------|---------|---------|---------|
B|---------|---------|---------|---------|---------|---------|---------|---------|---------|
G|---------|-7-------|-7-------|-5-------|-5-------|-7-------|-7-------|---------|---------|
D|-2-------|-7-------|-7-------|-5-------|-5-------|-7-------|-7-------|-2-------|-2-------|
A|-2-------|-5-------|-5-------|-3-------|-3-------|-5-------|-5-------|-2-------|-2-------|
E|-0-------|---------|---------|---------|---------|---------|---------|-0-------|-0-------|

E|---------|---------|---------|---------|---------|---------|---------|---------|---------|
B|---------|---------|---------|---------|---------|---------|---------|---------|---------|
G|-7-------|-7-------|-5-------|-5-------|-7-------|-7-------|---------|---------|-7-------|
D|-7-------|-7-------|-5-------|-5-------|-7-------|-7-------|-2-------|-2-------|-7-------|
A|-5-------|-5-------|-3-------|-3-------|-5-------|-5-------|-2-------|-2-------|-5-------|
E|---------|---------|---------|---------|---------|---------|-0-------|-0-------|---------|

E|---------|---------|---------|---------|---------|---------|---------|---------|---------|
B|---------|---------|---------|---------|---------|---------|---------|---------|---------|
G|-7-------|-5-------|-5-------|-7-------|-7-------|---------|---------|-7-------|-7-------|
D|-7-------|-5-------|-5-------|-7-------|-7-------|-2-------|-2-------|-7-------|-7-------|
A|-5-------|-3-------|-3-------|-5-------|-5-------|-2-------|-2-------|-5-------|-5-------|
E|---------|---------|---------|---------|---------|-0-------|-0-------|---------|---------|

E|---------|---------|---------|---------|-----------------------------------------|
B|---------|---------|---------|---------|-----------------------------------------|
G|-5-------|-5-------|-7-------|-7-------|-----------------------------------------|
D|-5-------|-5-------|-7-------|-7-------|-2----2----2----2----4----4----4----4----|
A|-3-------|-3-------|-5-------|-5-------|-0----0----0----0----2----2----2----2----|
E|---------|---------|---------|---------|-----------------------------------------|

E|-----------------------------------------|-----------------------------------------|
B|-----------------------------------------|-----------------------------------------|
G|-----------------------------------------|-----------------------------------------|
D|-5----5----5----5----7----7----7----7----|-9----9----9----9----12---12---12---12---|
A|-3----3----3----3----5----5----5----5----|-7----7----7----7----9----9----9----9----|
E|-----------------------------------------|-----------------------------------------|

E|-----------------------------------------|-----------------------------------------|
B|-----------------------------------------|-----------------------------------------|
G|-----------------------------------------|-----------------------------------------|
D|-12---12---12---12---14---14---14---14---|-5----5----5----5----7----7----7----7----|
A|-10---10---10---10---12---12---12---12---|-3----3----3----3----5----5----5----5----|
E|-----------------------------------------|-----------------------------------------|

E|-----------------------------------------|-----------------------------------------|
B|-----------------------------------------|-----------------------------------------|
G|-----------------------------------------|-----------------------------------------|
D|-9----9----9----9----12---12---12---14---|-4----4----4----4----4----4----4----4----|
A|-7----7----7----7----9----9----10---12---|-2----2----2----2----2----2----2----2----|
E|-----------------------------------------|-----------------------------------------|

E|-----------------------------------------|-----------------------------------------|
B|-----------------------------------------|-----------------------------------------|
G|-----------------------------------------|-----------------------------------------|
D|-5----5----5----5----7----7----7----7----|------9----8---------7---------4----5----|
A|-3----3----3----3----5----5----5----5----|------7----7---------7---------4----5----|
E|-----------------------------------------|-0--------------0---------0--------------|

E|-------------------------------------|-----------------------------------------|-------------------------------------|
B|-------------------------------------|-----------------------------------------|-------------------------------------|
G|-------------------------------------|-----------------------------------------|-------------------------------------|
D|------9----8---------7---------5-----|------9----8---------7---------4----5----|------9----8---------7---------5-----|
A|------7----7---------7---------5-----|------7----7---------7---------4----5----|------7----7---------7---------5-----|
E|-0--------------0---------0----------|-0--------------0---------0--------------|-0--------------0---------0----------|

E|-----------------------------------------|-------------------------------------|-----------------------------------------|
B|-----------------------------------------|-------------------------------------|-----------------------------------------|
G|-----------------------------------------|-------------------------------------|-----------------------------------------|
D|------9----8---------7---------4----5----|------9----8---------7---------5-----|------9----8---------7---------4----5----|
A|------7----7---------7---------4----5----|------7----7---------7---------5-----|------7----7---------7---------4----5----|
E|-0--------------0---------0--------------|-0--------------0---------0----------|-0--------------0---------0--------------|

E|-------------------------------------|-----------------------------------------|-------------------------------------|
B|-------------------------------------|-----------------------------------------|-------------------------------------|
G|-------------------------------------|-----------------------------------------|-------------------------------------|
D|------9----8---------7---------5-----|------9----8---------7---------4----5----|------9----8---------7---------5-----|
A|------7----7---------7---------5-----|------7----7---------7---------4----5----|------7----7---------7---------5-----|
E|-0--------------0---------0----------|-0--------------0---------0--------------|-0--------------0---------0----------|

E|-----------------------------------------|-------------------------------------|-----------------------------------------|
B|-----------------------------------------|-------------------------------------|-----------------------------------------|
G|-----------------------------------------|-------------------------------------|-----------------------------------------|
D|------9----8---------7---------4----5----|------9----8---------7---------5-----|------9----8---------7---------4----5----|
A|------7----7---------7---------4----5----|------7----7---------7---------5-----|------7----7---------7---------4----5----|
E|-0--------------0---------0--------------|-0--------------0---------0----------|-0--------------0---------0--------------|

E|-------------------------------------|
B|-------------------------------------|
G|-------------------------------------|
D|------9----8---------7---------5-----|
A|------7----7---------7---------5-----|
E|-0--------------0---------0----------|
Iron Maiden - Stanger in a Strange Land
Iron Maiden - Stanger in a Strange Land.gp3