Iron Maiden - Strange World

Iron Maiden



Title: Strange World
Album: 
Artist: 
Author: Iron Maiden

Track 1: Clean Guitar 1
E|---------|---------|--------------|--------------|-7------12-----7-----7----12-----|
B|---------|---------|--------------|--------------|---------------------------------|
G|-%-------|-%-------|-%------%-----|-%-------%----|---------------------------------|
D|-%-------|-%-------|-%------%-----|-%-------%----|---------------------------------|
A|---------|---------|--------------|--------------|---------------------------------|
E|---------|---------|--------------|--------------|---------------------------------|

E|--------------|-------12---7------7-----7----12-----|--------------|-7----------12-----12-------------12-----|
B|--------------|-12----------------------------------|--------------|-------12--------------------12----------|
G|-%-------%----|-------------------------------------|-%-------%----|------------------------12---------------|
D|-%-------%----|-------------------------------------|-%-------%----|-----------------------------------------|
A|--------------|-------------------------------------|--------------|-----------------------------------------|
E|--------------|-------------------------------------|--------------|-----------------------------------------|

E|--------------|-7-----12---7-----7----12---------12-----|----------------|----------------|
B|--------------|-----------------------------12----------|----------------|----------------|
G|-%-------%----|-----------------------------------------|-%-------%------|-%-------%------|
D|-%-------%----|-----------------------------------------|-%-------%------|-%-------%------|
A|--------------|-----------------------------------------|----------------|----------------|
E|--------------|-----------------------------------------|----------------|----------------|

E|----------------|----------------|----------------|----------------|----------------|
B|----------------|----------------|----------------|----------------|----------------|
G|-%-------%------|-%-------%------|-%-------%------|-%-------%------|-%-------%------|
D|-%-------%------|-%-------%------|-%-------%------|-%-------%------|-%-------%------|
A|----------------|----------------|----------------|----------------|----------------|
E|----------------|----------------|----------------|----------------|----------------|

E|----------------|---------------2-----------2-------------------------------------------------|
B|----------------|-------------------0------------0-------------------1----3--5--3---0--1--0---|
G|-%-------%------|-%----0----%-----------0-----------------------0-----------------------------|
D|-%-------%------|-%----2----%------------------------------2----------------------------------|
A|----------------|------2------------------------------3---------------------------------------|
E|----------------|------0----------------------------------------------------------------------|

E|-----------------3---2-------------2-------------0-------0---10--12--12--12--10---|
B|---------3---------------3---------------------------1-------10--12--12--12--10---|
G|-----2---------------------------------------0------------------------------------|
D|-0-----------0----------------0---------------------------------------------------|
A|----------------------------------------3-----------------------------------------|
E|----------------------------------------------------------------------------------|

E|------2--------2-----------2-------------------------------------------------|-----------------3---2-------------2-------------0---10--12--12--12--12--12--10---|
B|------0------------0------------0-------------------1----3--5--3---0--1--0---|---------3---------------3---------------------------10--12--12--12--12--12--10---|
G|-%----0----%-----------0-----------------------0-----------------------------|-----2---------------------------------------0------------------------------------|
D|-%----2----%------------------------------2----------------------------------|-0-----------0----------------0---------------------------------------------------|
A|------2------------------------------3---------------------------------------|----------------------------------------3-----------------------------------------|
E|------0----------------------------------------------------------------------|----------------------------------------------------------------------------------|

E|---------------2-----------2-------------------------------------------------|-----------------3---2-------------2-------------0-----------------------------|
B|-------------------0------------0-------------------1----3--5--3---0--1--0---|---------3---------------3-----------------------------------------------------|
G|-%----0----%-----------0-----------------------0-----------------------------|-----2---------------------------------------0-------------------12--7----5----|
D|-%----2----%------------------------------2----------------------------------|-0-----------0----------------0------------------------------12----------------|
A|------2------------------------------3---------------------------------------|----------------------------------------3----------------12--------------------|
E|------0----------------------------------------------------------------------|-----------------------------------------------------12------------------------|

E|---------------2-----------2-------------------------------------------------|-----------------3---2-------------2-------------0---10--12--12--12--12--12--10---|
B|-------------------0------------0-------------------1----3--5--3---0--1--0---|---------3---------------3---------------------------10--12--12--12--12--12--10---|
G|-%----0----%-----------0-----------------------0-----------------------------|-----2---------------------------------------0------------------------------------|
D|-%----2----%------------------------------2----------------------------------|-0-----------0----------------0---------------------------------------------------|
A|------2------------------------------3---------------------------------------|----------------------------------------3-----------------------------------------|
E|------0----------------------------------------------------------------------|----------------------------------------------------------------------------------|

E|-----------7-------7--------------7------7-----|--------------|-12-----7------7----------12-----|
B|-------8-------8--------8---------8------8-----|--------------|---------------------12----------|
G|-----------------------------9----9------9-----|-%-------%----|---------------------------------|
D|-----------------------------------------------|-%-------%----|---------------------------------|
A|-----------------------------------------------|--------------|---------------------------------|
E|-0---------------------------------------------|--------------|---------------------------------|

E|--------------|-12---------12-----7----------12-----|--------------|-12---------12-----7----------12-----|
B|--------------|-------12----------------12----------|--------------|-------12----------------12----------|
G|-%-------%----|-------------------------------------|-%-------%----|-------------------------------------|
D|-%-------%----|-------------------------------------|-%-------%----|-------------------------------------|
A|--------------|-------------------------------------|--------------|-------------------------------------|
E|--------------|-------------------------------------|--------------|-------------------------------------|

E|--------------|-12---------12-----7----------12-----|----------------|----------------|
B|--------------|-------12----------------12----------|----------------|----------------|
G|-%-------%----|-------------------------------------|-%-------%------|-%-------%------|
D|-%-------%----|-------------------------------------|-%-------%------|-%-------%------|
A|--------------|-------------------------------------|----------------|----------------|
E|--------------|-------------------------------------|----------------|----------------|

E|----------------|----------------|----------------|----------------|----------------|
B|----------------|----------------|----------------|----------------|----------------|
G|-%-------%------|-%-------%------|-%-------%------|-%-------%------|-%-------%------|
D|-%-------%------|-%-------%------|-%-------%------|-%-------%------|-%-------%------|
A|----------------|----------------|----------------|----------------|----------------|
E|----------------|----------------|----------------|----------------|----------------|

E|----------------|---------------2-----------2-------------------------------------------------|
B|----------------|-------------------0------------0-------------------1----3--5--3---0--1--0---|
G|-%-------%------|-%----0----%-----------0-----------------------0-----------------------------|
D|-%-------%------|-%----2----%------------------------------2----------------------------------|
A|----------------|------2------------------------------3---------------------------------------|
E|----------------|------0----------------------------------------------------------------------|

E|-----------------3---2-------------2-------------0-------0---10--12--12--12--10---|
B|---------3---------------3---------------------------1-------10--12--12--12--10---|
G|-----2---------------------------------------0------------------------------------|
D|-0-----------0----------------0---------------------------------------------------|
A|----------------------------------------3-----------------------------------------|
E|----------------------------------------------------------------------------------|

E|------2--------2-----------2-------------------------------------------------|-----------------3---2-------------2-------------0---10--12--12--12--12--12--10---|
B|------0------------0------------0-------------------1----3--5--3---0--1--0---|---------3---------------3---------------------------10--12--12--12--12--12--10---|
G|-%----0----%-----------0-----------------------0-----------------------------|-----2---------------------------------------0------------------------------------|
D|-%----2----%------------------------------2----------------------------------|-0-----------0----------------0---------------------------------------------------|
A|------2------------------------------3---------------------------------------|----------------------------------------3-----------------------------------------|
E|------0----------------------------------------------------------------------|----------------------------------------------------------------------------------|

E|---------------2-----------2-------------------------------------------------|-----------------3---2-------------2-------------0-----------------------------|
B|-------------------0------------0-------------------1----3--5--3---0--1--0---|---------3---------------3-----------------------------------------------------|
G|-%----0----%-----------0-----------------------0-----------------------------|-----2---------------------------------------0-------------------12--7----5----|
D|-%----2----%------------------------------2----------------------------------|-0-----------0----------------0------------------------------12----------------|
A|------2------------------------------3---------------------------------------|----------------------------------------3----------------12--------------------|
E|------0----------------------------------------------------------------------|-----------------------------------------------------12------------------------|

E|---------------2-----------2-------------------------------------------------|-----------------3---2-------------2-------------0---10--12--12--12--12--12--10---|
B|-------------------0------------0-------------------1----3--5--3---0--1--0---|---------3---------------3---------------------------10--12--12--12--12--12--10---|
G|-%----0----%-----------0-----------------------0-----------------------------|-----2---------------------------------------0------------------------------------|
D|-%----2----%------------------------------2----------------------------------|-0-----------0----------------0---------------------------------------------------|
A|------2------------------------------3---------------------------------------|----------------------------------------3-----------------------------------------|
E|------0----------------------------------------------------------------------|----------------------------------------------------------------------------------|

E|-----------7-------7--------------7------7-----|--------------|-12---------7------7-----7----12-----|
B|-------8-------8--------8---------8------8-----|--------------|-------12----------------------------|
G|-----------------------------9----9------9-----|-%-------%----|-------------------------------------|
D|-----------------------------------------------|-%-------%----|-------------------------------------|
A|-----------------------------------------------|--------------|-------------------------------------|
E|-0---------------------------------------------|--------------|-------------------------------------|

E|--------------|-7----------12-----12-------------12-----|--------------|-7-----7----12-----7-----7----12-----|
B|--------------|-------12--------------------12----------|--------------|-------------------------------------|
G|-%-------%----|------------------------12---------------|-%-------%----|-------------------------------------|
D|-%-------%----|-----------------------------------------|-%-------%----|-------------------------------------|
A|--------------|-----------------------------------------|--------------|-------------------------------------|
E|--------------|-----------------------------------------|--------------|-------------------------------------|

E|--------------|---------|-2-------|
B|--------------|---------|-0-------|
G|-%-------%----|-%-------|-0-------|
D|-%-------%----|-%-------|-2-------|
A|--------------|---------|-2-------|
E|--------------|---------|-0-------|
Iron Maiden - Strange World
Iron Maiden - Strange World.gp3