Iron Maiden - Tailgunner

Iron Maiden



Title: Tailgunner
Album: No Prayer For The Dying
Artist: Iron Maiden
Author: Iron Maiden

Track 1: Dave (Guitar 1)
E|---------|---------|---------|---------|---------|---------|---------|---------|---------|
B|---------|---------|---------|---------|---------|---------|---------|---------|---------|
G|-%-------|-%-------|-%-------|-%-------|-%-------|-%-------|-%-------|-%-------|-%-------|
D|-%-------|-%-------|-%-------|-%-------|-%-------|-%-------|-%-------|-%-------|-%-------|
A|---------|---------|---------|---------|---------|---------|---------|---------|---------|
E|---------|---------|---------|---------|---------|---------|---------|---------|---------|

E|---------|---------|---------|-------------------------------------|----------------------------------------------|
B|---------|---------|---------|-------------------------------------|----------------------------------------------|
G|-%-------|-%-------|-%-------|-3----4----4----4----3---------3-----|-4----4----3---------3----4----4----4----4----|
D|-%-------|-%-------|-%-------|--------------------------4----------|----------------4-----------------------------|
A|---------|---------|---------|-------------------------------------|----------------------------------------------|
E|---------|---------|---------|-------------------------------------|----------------------------------------------|

E|----------------0----0-----------|-------------------|-------------------------------------|
B|---------------------------0-----|-0-----------------|-------------------------------------|
G|-4----3--------------------------|------3----3-------|-3----4----4----4----3---------3-----|
D|-----------4---------------------|-------------------|--------------------------4----------|
A|---------------------------------|-------------------|-------------------------------------|
E|---------------------------------|-------------------|-------------------------------------|

E|-----------------------------------------|----------------0----0-----------|-------------------|
B|-----------------------------------------|---------------------------0-----|-0-----------------|
G|-4----4----3---------3----4----4----4----|-4----3--------------------------|------3----3-------|
D|----------------4------------------------|-----------4---------------------|-------------------|
A|-----------------------------------------|---------------------------------|-------------------|
E|-----------------------------------------|---------------------------------|-------------------|

E|-------------------------|--------------------|-------------------------|--------------------|
B|-------------------------|--------------------|-------------------------|--------------------|
G|--------3----3-----4-----|-4----3-------------|--------3----3-----4-----|-4----3-------------|
D|-2-----------------------|-------------2------|-2-----------------------|-------------2------|
A|-------------------------|--------------------|-------------------------|--------------------|
E|-------------------------|--------------------|-------------------------|--------------------|

E|-------------------------|--------------------|-------------------------|---------------|
B|-------------------------|--------------------|-------------------------|---------------|
G|--------3----3-----4-----|-4----3-------------|-------------------------|---------%-----|
D|-4-----------------------|-------------4------|-4-----4-----4-----4-----|-4-------%-----|
A|-------------------------|--------------------|-------------------------|---------------|
E|-------------------------|--------------------|-------------------------|---------------|

E|-------------------------------------|-------------------------------------|----------------------------|
B|-------------------------------------|-------------------------------------|----------------------------|
G|-------------------------------------|-------------------------------------|----------------------------|
D|-------------------------------------|-------------------------------------|----------------4----4------|
A|-1----2----2----2----1---------1-----|-2----2----1---------1----2----2-----|-2----1---------4----4------|
E|--------------------------2----------|----------------2--------------------|-----------2----2----2------|

E|---------|-------------------------------------|-------------------------------------|
B|---------|-------------------------------------|-------------------------------------|
G|---------|-------------------------------------|-------------------------------------|
D|-4-------|-------------------------------------|-------------------------------------|
A|-4-------|-1----2----2----2----1---------1-----|-2----2----1---------1----2----2-----|
E|-2-------|--------------------------2----------|----------------2--------------------|

E|----------------------------|---------|-------------------------------------|-----------------------------|
B|----------------------------|---------|-------------------------------------|-----------------------------|
G|----------------------------|---------|-11---9----9----9----9----9----9-----|-X----9-----9----9-----9-----|
D|----------------4----4------|-4-------|-11---9----9----9----9----9----9-----|-X----9-----9----9-----9-----|
A|-2----1---------4----4------|-4-------|-9----7----7----7----7----7----7-----|-X----7-----7----7-----7-----|
E|-----------2----2----2------|-2-------|-------------------------------------|-----------------------------|

E|---------------------------------|-----------------------------|-------------------------------------|
B|---------------------------------|-----------------------------|-------------------------------------|
G|-9-----X----9----9----9----9-----|-X----9-----9----9-----9-----|-------------------------------------|
D|-9-----X----9----9----9----9-----|-X----9-----9----9-----9-----|-------------------------------------|
A|-7-----X----7----7----7----7-----|-X----7-----7----7-----7-----|-------4----4----4----4----4----4----|
E|---------------------------------|-----------------------------|-0-----2----2----2----2----2----2----|

E|-------------------------------------|-------------------------------------|-------------------------------------|
B|-------------------------------------|-------------------------------------|-------------------------------------|
G|-------------------------------------|-------------------------------------|-------------------------------------|
D|-------------------------------------|-------------------------------------|-------------------------------------|
A|-4----4----4----4----4----4----4-----|-------4----4----4----4----4----4----|-4----4----4----4----4----4----4-----|
E|-2----2----2----2----2----2----2-----|-0-----2----2----2----2----2----2----|-2----2----2----2----2----2----2-----|

E|-------------------------------------|-------------------------------------|----------------------------|
B|-------------------------------------|-------------------------------------|----------------------------|
G|-------------------------------------|-------------------------------------|----------------------------|
D|-------------------------------------|-------------------------------------|----------------4----4------|
A|-1----2----2----2----1---------1-----|-2----2----1---------1----2----2-----|-2----1---------4----4------|
E|--------------------------2----------|----------------2--------------------|-----------2----2----2------|

E|---------|-------------------------------------|-------------------------------------|
B|---------|-------------------------------------|-------------------------------------|
G|---------|-------------------------------------|-------------------------------------|
D|-4-------|-------------------------------------|-------------------------------------|
A|-4-------|-1----2----2----2----1---------1-----|-2----2----1---------1----2----2-----|
E|-2-------|--------------------------2----------|----------------2--------------------|

E|----------------------------|---------|-------------------------------------|-----------------------------|
B|----------------------------|---------|-------------------------------------|-----------------------------|
G|----------------------------|---------|-11---9----9----9----9----9----9-----|-X----9-----9----9-----9-----|
D|----------------4----4------|-4-------|-11---9----9----9----9----9----9-----|-X----9-----9----9-----9-----|
A|-2----1---------4----4------|-4-------|-9----7----7----7----7----7----7-----|-X----7-----7----7-----7-----|
E|-----------2----2----2------|-2-------|-------------------------------------|-----------------------------|

E|---------------------------------|-----------------------------|-------------------------------------|
B|---------------------------------|-----------------------------|-------------------------------------|
G|-9-----X----9----9----9----9-----|-X----9-----9----9-----9-----|-------------------------------------|
D|-9-----X----9----9----9----9-----|-X----9-----9----9-----9-----|-------------------------------------|
A|-7-----X----7----7----7----7-----|-X----7-----7----7-----7-----|-------4----4----4----4----4----4----|
E|---------------------------------|-----------------------------|-0-----2----2----2----2----2----2----|

E|-------------------------------------|-------------------------------------|-------------------------|
B|-------------------------------------|-------------------------------------|-6------8----8-----6-----|
G|-------------------------------------|-------------------------------------|-5------5----5-----5-----|
D|-------------------------------------|-------------------------------------|-------------------------|
A|-4----4----4----4----4----4----4-----|-4----4----4----4----4----4----5-----|-------------------------|
E|-2----2----2----2----2----2----2-----|-2----2----2----2----2----2----3-----|-------------------------|

E|-------------5---------------|-------------------------|-------------3-----5-----|
B|-6----8------------8----4----|-4------6----6-----4-----|-4----6------------------|
G|-5----5----------------------|-3------3----3-----3-----|-3----3------------------|
D|-----------------------------|-------------------------|-------------------------|
A|-----------------------------|-------------------------|-------------------------|
E|-----------------------------|-------------------------|-------------------------|

E|-------------------------------------|-----------------------------------------|-------------------------------------|
B|-6----8----8----8----8----8----8-----|-8----8----8----8----8----6----6----6----|-6----8----8----8----8----8----8-----|
G|-5----7----7----7----7----7----7-----|-7----7----7----7----7----5----5----5----|-5----7----7----7----7----7----7-----|
D|-------------------------------------|-----------------------------------------|-------------------------------------|
A|-------------------------------------|-----------------------------------------|-------------------------------------|
E|-------------------------------------|-----------------------------------------|-------------------------------------|

E|-------------------------------------|-------------------------|-------------7---------------|
B|-8----8----8----8----8----6----6-----|-8------10---10----8-----|-8----10-----------10---8----|
G|-7----7----7----7----7----5----5-----|-7------7----7-----7-----|-7----7----------------------|
D|-------------------------------------|-------------------------|-----------------------------|
A|-------------------------------------|-------------------------|-----------------------------|
E|-------------------------------------|-------------------------|-----------------------------|

E|-------------------------|-------------5-----7-----|-------------------------------------|
B|-6------8----8-----6-----|-6----8------------------|-9----10---10---10---10---10---10----|
G|-5------5----5-----5-----|-5----5------------------|-7----9----9----9----9----9----9-----|
D|-------------------------|-------------------------|-------------------------------------|
A|-------------------------|-------------------------|-------------------------------------|
E|-------------------------|-------------------------|-------------------------------------|

E|-----------------------------------------|-------------------------------------|-------------------------------------|
B|-10---10---10---10---10---8----8----8----|-8----10---10---10---10---10---10----|-10---10---10---10---10---8----8-----|
G|-9----9----9----9----9----7----7----7----|-7----9----9----9----9----9----9-----|-9----9----9----9----9----7----7-----|
D|-----------------------------------------|-------------------------------------|-------------------------------------|
A|-----------------------------------------|-------------------------------------|-------------------------------------|
E|-----------------------------------------|-------------------------------------|-------------------------------------|

E|-----------------------------------------|-----------------------------------------|
B|-----------------------------------------|-----------------------------------------|
G|----------------3--------------5---------|------3--------------6----5----3---------|
D|-6----3----3---------3----3---------3----|-3---------3----3-------------------3----|
A|-----------------------------------------|-----------------------------------------|
E|-----------------------------------------|-----------------------------------------|

E|-----------------------------------------|-------------------------------------|-----------------------------------------|
B|-----------------------------------------|-------------------------------------|-----------------------------------------|
G|----------------3--------------5---------|------3--------------6----5----3-----|----------------3--------------5---------|
D|-6----3----3---------3----3---------3----|-3---------3----3--------------------|-6----3----3---------3----3---------3----|
A|-----------------------------------------|-------------------------------------|-----------------------------------------|
E|-----------------------------------------|-------------------------------------|-----------------------------------------|

E|-----------------------------------------|-----------------------------------------|
B|-----------------------------------------|-----------------------------------------|
G|------3--------------6----5----3---------|----------------3--------------5---------|
D|-3---------3----3-------------------3----|-6----3----3---------3----3---------3----|
A|-----------------------------------------|-----------------------------------------|
E|-----------------------------------------|-----------------------------------------|

E|-----------------------------------------|---------|-----------------------------|
B|------------------------------------9----|-9-------|-9-----9-----9-----9----9----|
G|------3--------------6----5----3---------|---------|-----------------------------|
D|-3---------3----3------------------------|---------|-----------------------------|
A|-----------------------------------------|---------|-----------------------------|
E|-----------------------------------------|---------|-----------------------------|

E|-------------------------------------------|----------------------------------|--------11---------------------------------|
B|-9------9----9----7----9----7--------------|-9----7---------7----------14-----|-14----------14---11---13---11---10---11---|
G|---------------------------------%----8----|-----------8----------8-----------|-------------------------------------------|
D|---------------------------------%---------|----------------------------------|-------------------------------------------|
A|-------------------------------------------|----------------------------------|-------------------------------------------|
E|-------------------------------------------|----------------------------------|-------------------------------------------|

E|----------------------------------------------------------------|-----------------------------------------------------|
B|-10--11--13--11--10--11-----------------------------------------|-----------------------------------------------------|
G|--------------------------13--13--11--------11--------11--------|-11--11----------------------------------------------|
D|---------------------------------------13--------13--------13---|---------13--12--11--------11-------------10---------|
A|----------------------------------------------------------------|----------------------13--------13---11--------11----|
E|----------------------------------------------------------------|-----------------------------------------------------|

E|-------------14-----|-14---14---13---11---------------------------------|------------------16---16---|
B|--------------------|---------------------11---14---13---11--------11---|----------------------------|
G|--------%-----------|-----------------------------------------13--------|-13-----13---%--------------|
D|--------%-----------|---------------------------------------------------|-------------%--------------|
A|-11-----------------|---------------------------------------------------|----------------------------|
E|--------------------|---------------------------------------------------|----------------------------|

E|-16---16---14---13---14---13-------------|-------------------------|------9----7----6----7----6---------------------|
B|-------------------------------14---14---|-14-----14---------9-----|-9------------------------------6---8---6-------|
G|-----------------------------------------|-------------%-----------|--------------------------------------------8---|
D|-----------------------------------------|-------------%-----------|------------------------------------------------|
A|-----------------------------------------|-------------------------|------------------------------------------------|
E|-----------------------------------------|-------------------------|------------------------------------------------|

E|----------------------------------|-----------------------------------------------------|
B|----------------------------------|-----------------------------------------------------|
G|-6------6----%--------------------|------%----5---6---5-------5----%----10--11--10------|
D|-------------%----3---4---3-------|-3----%----------------8--------%----------------13--|
A|------------------------------6---|-----------------------------------------------------|
E|----------------------------------|-----------------------------------------------------|

E|---------------------------11--------------|------13---14--------13----------13----|
B|-----------11--12--11-----------------16---|-16-------------16---------16----------|
G|-10---%----------------13-------%----------|---------------------------------------|
D|------%-------------------------%----------|---------------------------------------|
A|-------------------------------------------|---------------------------------------|
E|-------------------------------------------|---------------------------------------|

E|----------------------------------------------|--------------------------------------------------------|
B|-14---16---13---14---13--------13-------------|-------------------------------------------13--14--13---|
G|--------------------------15--------13---15---|-12--13--12------12---12-------12--13--15---------------|
D|----------------------------------------------|-------------15------------15---------------------------|
A|----------------------------------------------|--------------------------------------------------------|
E|----------------------------------------------|--------------------------------------------------------|

E|------12---11---14---13--------14---13------------------|------------------------------------|
B|-11-----------------------16-------------15---17---15---|-15----15----15---15---15---13--14--|
G|--------------------------------------------------------|------------------------------------|
D|--------------------------------------------------------|------------------------------------|
A|--------------------------------------------------------|------------------------------------|
E|--------------------------------------------------------|------------------------------------|

E|-------------------------------------------------------------|-------------------------------------------------|
B|-13-------14--13---16--14--13--14--13-----13-14--13----------|-------------------------------------------------|
G|------15-------------------------------15------------15--13--|-15---13----------------%------------------------|
D|-------------------------------------------------------------|-----------15--13--15---%------------------------|
A|-------------------------------------------------------------|-----------------------------15---13-------------|
E|-------------------------------------------------------------|---------------------------------------14---14---|

E|----------------------------------------------13--|-16--15--13--16--15--13--16--15--13--16--15--13--16--15--13--16--|
B|----------------------------------13--14--16------|-----------------------------------------------------------------|
G|------15---13--15--13---13---15-------------------|-----------------------------------------------------------------|
D|--------------------------------------------------|-----------------------------------------------------------------|
A|-15-----------------------------------------------|-----------------------------------------------------------------|
E|--------------------------------------------------|-----------------------------------------------------------------|

E|-15--13--16--15--13--16--15--13--13--16--18---18----|-18-----18---16----18----18----|
B|----------------------------------------------------|-------------------------------|
G|----------------------------------------------------|-------------------------------|
D|----------------------------------------------------|-------------------------------|
A|----------------------------------------------------|-------------------------------|
E|----------------------------------------------------|-------------------------------|

E|-18---18-----18----18---15---|-15---16--15-------15-----------------------|-----------------------------16---15---13--------|
B|-----------------------------|--------------18--------16-------------14---|-13--14--13--------13---14------------------16---|
G|-----------------------------|-----------------------------15---13--------|--------------15---------------------------------|
D|-----------------------------|--------------------------------------------|-------------------------------------------------|
A|-----------------------------|--------------------------------------------|-------------------------------------------------|
E|-----------------------------|--------------------------------------------|-------------------------------------------------|

E|------13---------------------------------------|------------------------|-----------------------------------------|
B|-16--------14--------13--14--13------13---16---|-16-----16---16---------|-----------------------------------------|
G|----------------15---------------15------------|------------------0-----|----------------3--------------5---------|
D|-----------------------------------------------|------------------------|-6----3----3---------3----3---------3----|
A|-----------------------------------------------|------------------------|-----------------------------------------|
E|-----------------------------------------------|------------------------|-----------------------------------------|

E|-----------------------------------------|-----------------------------------------|
B|-----------------------------------------|-----------------------------------------|
G|------3--------------6----5----3---------|----------------3--------------5---------|
D|-3---------3----3-------------------3----|-6----3----3---------3----3---------3----|
A|-----------------------------------------|-----------------------------------------|
E|-----------------------------------------|-----------------------------------------|

E|-------------------------------------|-----------------------------------------|-----------------------------------------|
B|-------------------------------------|-----------------------------------------|-----------------------------------------|
G|------3--------------6----5----3-----|----------------3--------------5---------|------3--------------6----5----3---------|
D|-3---------3----3--------------------|-6----3----3---------3----3---------3----|-3---------3----3-------------------3----|
A|-------------------------------------|-----------------------------------------|-----------------------------------------|
E|-------------------------------------|-----------------------------------------|-----------------------------------------|

E|-----------------------------------------|-------------------------------------|-------------------------------------|
B|-----------------------------------------|-------------------------------------|-------------------------------------|
G|----------------3--------------5---------|------3--------------6----5----3-----|-------------------------------------|
D|-6----3----3---------3----3---------3----|-3---------3----3--------------------|-------------------------------------|
A|-----------------------------------------|-------------------------------------|-1----2----2----2----1---------1-----|
E|-----------------------------------------|-------------------------------------|--------------------------2----------|

E|-------------------------------------|----------------------------|---------|-------------------------------------|
B|-------------------------------------|----------------------------|---------|-------------------------------------|
G|-------------------------------------|----------------------------|---------|-------------------------------------|
D|-------------------------------------|----------------4----4------|-4-------|-------------------------------------|
A|-2----2----1---------1----2----2-----|-2----1---------4----4------|-4-------|-1----2----2----2----1---------1-----|
E|----------------2--------------------|-----------2----2----2------|-2-------|--------------------------2----------|

E|-------------------------------------|----------------------------|---------|-------------------------------------|
B|-------------------------------------|----------------------------|---------|-------------------------------------|
G|-------------------------------------|----------------------------|---------|-11---9----9----9----9----9----9-----|
D|-------------------------------------|----------------4----4------|-4-------|-11---9----9----9----9----9----9-----|
A|-2----2----1---------1----2----2-----|-2----1---------4----4------|-4-------|-9----7----7----7----7----7----7-----|
E|----------------2--------------------|-----------2----2----2------|-2-------|-------------------------------------|

E|-----------------------------|---------------------------------|-----------------------------|
B|-----------------------------|---------------------------------|-----------------------------|
G|-X----9-----9----9-----9-----|-9-----X----9----9----9----9-----|-X----9-----9----9-----9-----|
D|-X----9-----9----9-----9-----|-9-----X----9----9----9----9-----|-X----9-----9----9-----9-----|
A|-X----7-----7----7-----7-----|-7-----X----7----7----7----7-----|-X----7-----7----7-----7-----|
E|-----------------------------|---------------------------------|-----------------------------|

E|-------------------------------------|-------------------------------------|-------------------------------------|
B|-------------------------------------|-------------------------------------|-------------------------------------|
G|-------------------------------------|-------------------------------------|-------------------------------------|
D|-------------------------------------|-------------------------------------|-------------------------------------|
A|-------4----4----4----4----4----4----|-4----4----4----4----4----4----4-----|-------4----4----4----4----4----4----|
E|-0-----2----2----2----2----2----2----|-2----2----2----2----2----2----2-----|-0-----2----2----2----2----2----2----|

E|-------------------------------------|-------------------------------------|-------------------------------------|
B|-------------------------------------|-------------------------------------|-------------------------------------|
G|-------------------------------------|-------------------------------------|-------------------------------------|
D|-------------------------------------|-------------------------------------|-------------------------------------|
A|-4----4----4----4----4----4----4-----|-1----2----2----2----1---------1-----|-2----2----1---------1----2----2-----|
E|-2----2----2----2----2----2----2-----|--------------------------2----------|----------------2--------------------|

E|----------------------------|---------|-------------------------------------|-------------------------------------|
B|----------------------------|---------|-------------------------------------|-------------------------------------|
G|----------------------------|---------|-------------------------------------|-------------------------------------|
D|----------------4----4------|-4-------|-------------------------------------|-------------------------------------|
A|-2----1---------4----4------|-4-------|-1----2----2----2----1---------1-----|-2----2----1---------1----2----2-----|
E|-----------2----2----2------|-2-------|--------------------------2----------|----------------2--------------------|

E|----------------------------|---------|-------------------------------------|-----------------------------|
B|----------------------------|---------|-------------------------------------|-----------------------------|
G|----------------------------|---------|-11---9----9----9----9----9----9-----|-X----9-----9----9-----9-----|
D|----------------4----4------|-4-------|-11---9----9----9----9----9----9-----|-X----9-----9----9-----9-----|
A|-2----1---------4----4------|-4-------|-9----7----7----7----7----7----7-----|-X----7-----7----7-----7-----|
E|-----------2----2----2------|-2-------|-------------------------------------|-----------------------------|

E|---------------------------------|-----------------------------|-------------------------------------|
B|---------------------------------|-----------------------------|-------------------------------------|
G|-9-----X----9----9----9----9-----|-X----9-----9----9-----9-----|-------------------------------------|
D|-9-----X----9----9----9----9-----|-X----9-----9----9-----9-----|-------------------------------------|
A|-7-----X----7----7----7----7-----|-X----7-----7----7-----7-----|-------4----4----4----4----4----4----|
E|---------------------------------|-----------------------------|-0-----2----2----2----2----2----2----|

E|-------------------------------------|-------------------------------------|-------------------------|
B|-------------------------------------|-------------------------------------|-6------8----8-----6-----|
G|-------------------------------------|-------------------------------------|-5------5----5-----5-----|
D|-------------------------------------|-------------------------------------|-------------------------|
A|-4----4----4----4----4----4----4-----|-4----4----4----4----4----4----5-----|-------------------------|
E|-2----2----2----2----2----2----2-----|-2----2----2----2----2----2----3-----|-------------------------|

E|-------------5---------------|-------------------------|-------------3-----5-----|
B|-6----8------------8----4----|-4------6----6-----4-----|-4----6------------------|
G|-5----5----------------------|-3------3----3-----3-----|-3----3------------------|
D|-----------------------------|-------------------------|-------------------------|
A|-----------------------------|-------------------------|-------------------------|
E|-----------------------------|-------------------------|-------------------------|

E|-------------------------------------|-----------------------------------------|-------------------------------------|
B|-6----8----8----8----8----8----8-----|-8----8----8----8----8----6----6----6----|-6----8----8----8----8----8----8-----|
G|-5----7----7----7----7----7----7-----|-7----7----7----7----7----5----5----5----|-5----7----7----7----7----7----7-----|
D|-------------------------------------|-----------------------------------------|-------------------------------------|
A|-------------------------------------|-----------------------------------------|-------------------------------------|
E|-------------------------------------|-----------------------------------------|-------------------------------------|

E|-------------------------------------|-------------------------|-------------7---------------|
B|-8----8----8----8----8----6----6-----|-8------10---10----8-----|-8----10-----------10---8----|
G|-7----7----7----7----7----5----5-----|-7------7----7-----7-----|-7----7----------------------|
D|-------------------------------------|-------------------------|-----------------------------|
A|-------------------------------------|-------------------------|-----------------------------|
E|-------------------------------------|-------------------------|-----------------------------|

E|-------------------------|-------------5-----7-----|-------------------------------------|
B|-6------8----8-----6-----|-6----8------------------|-9----10---10---10---10---10---10----|
G|-5------5----5-----5-----|-5----5------------------|-7----9----9----9----9----9----9-----|
D|-------------------------|-------------------------|-------------------------------------|
A|-------------------------|-------------------------|-------------------------------------|
E|-------------------------|-------------------------|-------------------------------------|

E|-----------------------------------------|-------------------------------------|-------------------------------------|
B|-10---10---10---10---10---8----8----8----|-8----10---10---10---10---10---10----|-10---10---10---10---10---8----8-----|
G|-9----9----9----9----9----7----7----7----|-7----9----9----9----9----9----9-----|-9----9----9----9----9----7----7-----|
D|-----------------------------------------|-------------------------------------|-------------------------------------|
A|-----------------------------------------|-------------------------------------|-------------------------------------|
E|-----------------------------------------|-------------------------------------|-------------------------------------|

E|-------------------------------------|-------------------------------------|---------------------------------|
B|-------------------------------------|-------------------------------------|---------------------------------|
G|-------------------------------------|-------------------------------------|----------------11---11----11----|
D|-------------------------------------|-------------------------------------|----------------11---11----11----|
A|-1----2----2----2----1---------1-----|-2----2----1---------1----2----2-----|-2----1---------9----9-----9-----|
E|--------------------------2----------|----------------2--------------------|-----------2---------------------|
Iron Maiden - Tailgunner
Iron Maiden - Tailgunner.gp3